Log in

One click and you are in

Login with Facebook Login with Google

Why sign up and log in

Guitar Tabs Explorer
Dave Matthews Band tabs for Say goodbye

Guitar tabs

"Say Goodbye"

from Dave Matthews Band
Crash

Intro - 29 bars (flute, drums, etc.)


-------- ----- ----- ----------
-------- ----- ----- ----------
-------- -9--- -7--- ----------
---7---- -9--- -7--- -7--------
-------- -7--- -5--- -7------2-
-5------ ----- ----- -5------0-


Figure 1
------------------------ ----------------
------------------------ -9-----9---9--9-
-6--6------6~7-7-7------ -9-----9---9--9-
------------------------ ----9------9--9-
-4--4---4--4~5-5-5--~11- ---11-----11-11-
--------5--------------- ----------------
                        .....so here we are tonight....
---------------------- -------------------
---------------------- -------------------
--11-----11---11------ ----6---6-6-6--6---
---------------------- -------------------
---9------9----9------ ----4---4-4-4--4---
--10-10--10---10--10~- ~5--5---5-5-5--5---


Verse 1

     .....you and me together...

Figure 2
Dave
------------- ------ -------- ----------
------------- ------ -------- ----------
-6----------- --9--- ----11-- ----6-----
------------- --9--- -------- ----------
-4-------~11- -11--- -----9-- ----4-----
-5----------- ------ -10-10-- ~5--5-----
Tim
------------- ------ -------- ----------
------------- ------ -------- ----------
-2----------- --9--- --7----- --2-------
-2----------- --9--- --7----- --2-------
-4----------- -11--- --9----- --4-------
-0----------- --0--- -------- --0-------

Figure 2 - 3 more times


Chorus

Stay here with me...........

Figure 3
Dave
----- ----- ----- -----
-0--- -0--- -2--- -2---
-4--- -4--- -2--- -2---
-4--- -2--- -2--- -0---
-2--- ----- -0--- -----
----- -4--- ----- -2---
Tim
-2--- -4--- ----- -2---
-3--- -5--- -2--- -2---
-4--- -4--- -2--- -2---
-4--- -6--- -2--- -0---
-2--- ----- -0--- -----
----- -4--- ----- -2---
       T           T

repeat Figure 3

           ....tomorrow go back......
--------- ------ --------
-3---3--- --3--- --------
-0------- --2--- --------
-----4--- --0--- --------
-2---2--- ------ --------
-3---3--- --2--- --------

play Figure 1


Verse 2

....but tonight let's be lovers.....

Play Figure 2 - 3 times


Chorus

Run away here with me.......

Figure 3 - 4 times

           ....tomorrow go back......
--------- ------ --------
-3---3--- --3--- --------
-0------- --2--- --------
-----4--- --0--- --------
-2---2--- ------ --------
-3---3--- --2--- --------

play Figure 1 (Dave)
with

Tim
Figure 2B
-5--- --0------- ----- ---5----
-5--- --0------- -7--- ---5----
-6--- --1------- -7--- ---6----
-7--- --2------- -7--- ---7----
-7--- --2------- -5--- ---7----
-5--- --0---4-2~ ----- ---5----


Verse 3

Tonight let's be lovers......

Figure 2 and 2B - 2 times


Chorus

Hear me call, oh, soft-spoken......

Figure 3 - 4 times


Figure 4
--------- ------0- -0--- -0---
-3---3--- --3---0- -0--- -0---
-0------- --2---2- -2--- -2---
-----4--- --0---2- -2--- -2---
-2---2--- ------0- -0--- -0---
-3---3--- --2----- ----- -----

repeat Figure 4


Outro

yeah, Just for tonight, one night........

play Figure 4

--------- ------- ---- -------
-3---3--- --3---- -2-- -(2)---
-0------- --2---- -2-- -(2)---
-----4--- --0---- -2-- -(2)---
-2---2--- ------- -0-- -(0)---
-3---3--- --2---- ---- -------

play Figure 4

      ....tomorrow, say goodbye.....

Dave
--------- ------0- -0--- -0---
-3---3--- --3---0- -0--- -0---
-0------- --2---2- -2--- -2---
-----4--- --0---2- -2--- -2---
-2---2--- ------0- -0--- -0---
-3---3--- --2----- ----- -----
Tim
--------- -------- ----- -----
-3---3--- --3----- -2--- -2---
-2---2--- --2----- -2--- -2---
-0---4--- --0----- -2--- -2---
--------- -------- -0--- -0---
-3---3--- --2----- ----- -----

Dave
--------- ------ --------
-3---3--- --3--- --------
-0------- --2--- --------
-----4--- --0--- --------
-2---2--- ------ --------
-3---3--- --2--- --------
Tim
--------- ------ --------
-3---3--- --3--- -2------
-2---2--- --2--- -2------
-0---4--- --0--- -2------
--------- ------ -0------
-3---3--- --2--- --------

Other versions of Say Goodbye

Say goodbyeChords

Almost there ...

Sign in to get your own page with links to favourite songs and more. You are just one click away...

Login with Facebook Login with Google