Log in

One click and you are in

Login with Facebook Login with Google

Why sign up and log in

Guitar Tabs Explorer
Dave Matthews Band tabs for Route two

Guitar tabs with lyrics

Dave Matthews Band
Route 2
Tabbed by Kyle Fischer

This is an unreleased song by the Dave Matthews Band.

The first part is what Dave plays through the song.
At the end he changes it sometimes and I think think
the second thing is what he plays there.The bass line
is pretty constant but he changes the picking some.

|-----------------------|  |----------------------|
|-----------------------|  |------1-----3------3--|
|----0-------0-------0--|  |----0-----------------|
|-----------------------|  |----------------------|
|-3------2--------------|  |-3--------2-----------|
|----------------3------|  |-----------------3----|

Here is Stefans part. Obviosly it should be played on
bass but you can play it on guitar and it sounds fine.
The fig A chord diagramA augmentedA is what he plays the first few times when he
joins in with Dave. Then he switches up between Fig. A,
B, and A chord diagramC majorC throughout the song.

Fig. A chord diagramA augmentedA                Fig. A chord diagramBB                  Fig. A chord diagramC majorC
|----------------|   |-------------------|   |------------------|
|----------------|   |-------------------|   |------------------|
|----------------|   |-------------------|   |------------------|
|----------------|   |-------------------|   |------------------|
|--3----2--------|   |--0--3----2--------|   |--0--2--3----2----|
|------------3---|   |---------------3---|   |----------------3-|


e-mail any additions you have to kraizybone@ghettos.com

Almost there ...

Sign in to get your own page with links to favourite songs and more. You are just one click away...

Login with Facebook Login with Google