Log in

One click and you are in

Login with Facebook Login with Google

Why sign up and log in

Guitar Tabs Explorer
Dave Matthews Band tabs for Rhyme and reason

Guitar tabs with lyrics

"Rhyme and Reason"

from Dave Matthews Band
Under the Table and Dreaming
Intro

Dave and Tim - acoustics
Figure 1
----------------- -----------------
----------------- -----------------
------3---------- -------9---------
-~5---------5---- -7---------10-0--
----5--~6----~8-- -----------------
----------6-----8 ---x-8---6-------

play Fig. 1 - twice
then play Fig. 1 w/ 1B - twice

Figure 1A
----------------- -----------------
------3---------- -------8---------
----------------- -----------9-----
-~5---------8---- 10------------0--
----5--~6----~8-- -----------------
----------6-----8 ---x-8---6-------


Verse
play Figure 1 - 8 times

Oh, well, Oh well, here we stand....


Chorus

My head won't leave my head alone.....

Figure 2 - play twice
--- --- --- ---
--- --- --- ---
--- --- --- ---
--- -5- -3- -5-
-5- -3- -1- ---
-3- --- --- -5-

play Figure 1 - 2 times
play Fig. 1 w/ 1B - 4 times

Verse 2
Figure 1 - 8 times

How long? I'm tied up.....


Chorus

My head won't leave my head alone.....

Figure 2 - 4 times

Figure 1 - 2 times

Fig.1 w/1B - 4 times


Verse 3

So young, here I am again.....

Figure 1 - 8 times


Chorus

Figure 2 - 10 times
           trem.
--------- ------
-------3- --3---
-----3--- --3---
---7----- --7---
-8------- --8---
--------- ------


Scott Taylor
School of Music
The Florida State University
http://www.geocities.com/sequenzax
AOL IM: tromba1B
"Eat, drink, and be merry, for tomorrow we shall die." - Epicurus

Almost there ...

Sign in to get your own page with links to favourite songs and more. You are just one click away...

Login with Facebook Login with Google