Log in

One click and you are in

Login with Facebook Login with Google

Why sign up and log in

Guitar Tabs Explorer
Dave Matthews Band tabs for Recently

Guitar tabs

"Recently" of the Album Recently by the Dave Matthews Band
tabbed by Toga434@aol.com


INTRO                           VERSE/FILLS

e-----------------------|-----------------------------------------------------
B-----------------------|-----------------------------------------------------
G--9--8----7--6----5--4-|-4-----0---3-3--------3---------3-----5-3-2-1--------
D--0--0----0--0----0--0-|---------5---5---5(7)-5----5(7)-5--------------------
A--x--x----x--x----x--x-|--------------5-5-------5-5-------5-5--------3/7-3-5-
E--9--7----7--5----5--3-|3-0--/3--------3---------3---------3----------------3

"Recently I've been..."

e--------------------------------|----------------------
B--------------------------------|----------------------
G--------3----------3----------3-|-----5-3-2-1----------
D---5(7)-5-----5(7)-5-----5(7)-5-|----------------------
A--5-------5-5--------5-5--------|-5-----------3/7-3-5--
E-3---------3----------3---------|--3-----------------3-

People Stare...../Oh no, ......

e-------------------------------------------
B-------------------------------------------
G-------------------------------------------
D-------------------------------------------
A----0-3--5--3/8-3--5--0-3--5--3/8-3--5-----
E--3-------3---------3-------3---------3----


e-------------------------------------------------------
B-------------------------------------------------------
G--7--6----5--4-----5--7--4-----7--6----5--4-----5------ Back to Verse
D--0--0----0--0-----3--0--0-----0--0----0--0-----3------
A--x--x----x--x--------x--x-----x--x----x--x--------5---
E--7--5----5--3---/3---7--5-----7--5----5--3---/3----3--

Almost there ...

Sign in to get your own page with links to favourite songs and more. You are just one click away...

Login with Facebook Login with Google