Log in

One click and you are in

Login with Facebook Login with Google

Why sign up and log in

Guitar Tabs Explorer
Dave Matthews Band tabs for Pay for what you get

Pay For What You Get tab by Dave Matthews Band

Dave Matthews Band tabs for Pay for what you get

Guitar tabs with lyrics

Here's the tab and words to this sweet song off of
         "Under The Table And Dreaming" by DMB. Use your fingers
         and slap the tops of the strings after each chord for
         percussion (Listen to the song to get the timing right!)

               "Pay For What You Get" - Dave Matthews Band
                     -transcribed by Steve Nazarian-
                       (snazaria@student.umass.edu)

TAB:

(h) - means hammer on
(v) - means vibrato


INTRO:

 e--8(h)10--8----------------------8(h)10--8------------------8(h)10--8---
  --8(h)10--8----------------------8(h)10--8------------------8(h)10--8---
  ------------------------------------------------------------------------
  -------------7--7-------5--5--5--------------5--5--5--7--7--------------
  -------------5--5---8---3--3--3--------------3--3--3--5--5--------------
 E--------------------6---------------------------------------------------


 e-----------------8(h)10--8------------------8(h)10--8--------------------
  -----------------8(h)10--8------------------8(h)10--8--------------------
  -------------------------------------------------------------------------
  --7-----5--5--5--------------5--5--5--7--7-------------7-----5--5--5--7--
  --5--8--3--3--3--------------3--3--3--5--5-------------5--8--3--3--3--5--
 E-----6----------------------------------------------------6--------------


VERSE: This part is repeated several times before leading in
       to the chorus (Again, just listen to the song...)

 e-----------------------------------------------------------------------
  ----------------5(v)--------------------5(v)--------------------5(v)---
  ----------------5(v)----5---------------5(v)----5---------------5(v)---
  ---7--7--7--7-----------5--7--8--7--7-----------5--7--8--7--7----------
  ---5--5--5--5--------------7--8--7--5--------------7--8--7--5----------
 E-----------------------------------------------------------------------


CHORUS:

 e----------------------------------------------------------------
  ----------------------------------------------------------------
  ---5--5--5--5-----------------5--5--5--5------------------------
  ---5--5--5--5---3--3---8--8---5--5--5--5---3--3---8--7--8--7----
  ----------------3--3---8--8----------------3--3---8--7--8--7----
 E----------------------------------------------------------------

BACK TO VERSE AND SO ON:

    This is essentially the whole song (There are a couple variations
  to these parts but nothing you can't figure out easily enough by
  ear if you have to...) It would be a waste of time to write the same
  parts over and over again (OKAY SO I'M LAZY!!!)

Almost there ...

Sign in to get your own page with links to favourite songs and more. You are just one click away...

Login with Facebook Login with Google