GuitarTabsExplorer icon
GuitarTabsExplorer icon

Log in

Songbook

  • Log in to add and see bookmarks

Last visited songs

    No songs visited yet...

Lover Lay Down by Dave Matthews Band

Lover Lay Down tab by Dave Matthews Band

Tabs with lyrics

"Lover Lay Down"

from Dave Matthews Band
Under the Table and Dreaming


Intro

Figure 1
Dave
------------------ ----------------
------------------ ----------------
----2~~4-----4~~6- ----6--7--------
----0--------5~~7- ----7--7--------
------------------ ----------------
-2--------3------- -5--------7--5--
Tim
------------------ ----------------
----------------2- ----2--3--3--2--
---2--~4-----4--2- ----2--2--2--2--
---0--~5-----5--2- ----2--4--4--2--
------------------ -0--------2--0--
-2--------3------- ----------------

play figure 1 - 4 times total

Verse 1

Spring, sweet rhythm dance in my head.....

play Figure 1 - 8 times


Chorus

Oh, please lover lay down.....

Figure 2

Dave & Tim
-------- ----- --3--- -2-------
-2---3-- --5-- --0--- -3---2---
-2---2-- --4-- --0--- -2---2---
-2---4-- --2-- --0--- -4---2---
-0---0-- ----- --2--- -2---0---
-------- --4-- --3--- ---------

repeat Figure 2

...walk with me walk with you.

Verse 2

Hold my hands, your hands.....

Figure 1 - 4 times

.....we are stronger.


Chorus

Chord diagramA augmentedA million seasons life to deny.....

Figure 2 - 4 times

.....oh, please...


Verse 3

oh, please lover lay down......

Figure 1 - 4 times


Say love, say love.........

Figure 3
Dave
------------------ ----------------
-------------0---- ----2--3--3--2--
----2--------0---- ----2--2--2--2--
----0--------4---- ----2--4--4--2--
-4--------5------- ----------2--0--
-2--------3------- -5--------------
T
Tim
------------------ ----------------
----------------2- ----2--3--3--2--
----2-~0-----4--2- ----2--2--2--2--
----0-~4-----5--2- ----2--4--4--2--
-4-----5---------- -0--------2--0--
-2--------3------- ----------------
T        T

play Figure 3 - 5 more times


play Figure 1 - 18 times


then

play these 2 bars - 7 times

Dave & Tim
------------- -------
------------- -------
----2~~4--4-- -(4)---
----0-----5-- -(5)---
------------- -------
-2--------3-- -(3)---
Tim (overdub)
----5~~7----- -(7)---
------------- -------
------------- -------
------------- -------
------------- -------
------------- -------

Dave & Tim
-------------
-------------
----2~~4--4--
----0-----5--
-------------
-2--------3--
Tim (overdub)
----5~~7--7--
-------------
-------------
-------------
-------------
-------------

Dave
--------------- -------------- --------
--------------- -------------- --------
----6--6------- -------------- --------
----7--7------- -0------------ -(0)----
--------------- -------------- --------
-5-------0----- -------------- --------
Tim
--------------- -------------- --------
--------------- -------------- --------
----6--6----6-- -----------0-- -(0)----
----7--7------- -------0-4---- --------
--------------- -----0-------- --------
-5------------- ---2---------- --------
                   T


The End

Scott Taylor
School of Music
The Florida State University
http://www.geocities.com/sequenzax
AOL IM: tromba1B
"Eat, drink, and be merry, for tomorrow we shall die." - Epicurus

Other versions of Lover Lay Down

Alternative guitar chords and tabs for Lover lay down by Dave Matthews Band

VersionType
Lover lay downChords

[ Privacy | About us ]

Welcome to the guitar community

Why join and log in?
- Get songbook with favourite songs
- Get custom made front page
- Submit chords and tabs
- Submit guitar-cover videos
- Get a lot of thumbs up for your work

Songbook

Last visited songs

Site
Home
Search
Community
Submit chords
Submit video

Video

No video for this page. Check out how you can submit guitar-cover videos here

Search tabs and chords

Browse by artist

A B C D E F G H I J K L M N O P Q R S T U V W X Y Z #


Menu

Search

Video

Bookmark

Login