GuitarTabsExplorer icon
GuitarTabsExplorer icon

Log in

Songbook

  • Log in to add and see bookmarks

Last visited songs

  • No songs visited yet...
Long Black Veil by Dave Matthews Band

Long Black Veil tab by Dave Matthews Band

Tabs

"Long Black Veil"

from Dave Matthews Band
Listener Supported

Intro

Chord diagramC majorC     sus2
----------------------
----------------------
----9--(9)--------9---
---10--10---12---10---
----------------------
-8-------(8)---8------
play this bar 8 times - w/slight variations
Verse

"Ten Years Ago......

Figure 1                 (2/4 bar)
---------------- ---------------- ------ -------
---------------- ---------------- ------ -------
---9---------9-- ---9---------9-- --7--- --9----
--10--10-12-10-- --10--10-12-10-- --9--- -10----
---------------- ---------------- -10--- --8----
-8------8--8---- -8------8--8---- ------ -------

---------------- ----------------
---------------- ---------------- end Fig. 1
---9---------9-- ---9---------9--
--10--10-12-10-- --10--10-12-10--
---------------- ----------------
-8------8--8---- -8------8--8----


"There were few at the scene......

repeat Figure 1


Chorus

"She walks these hills.....in a long black veil....

[Figure 2              ]
     (2/4 bar)
-1------- -1------- ----- -------
-1---1--- -1------- -1--- -1-----
-2---0--- -2------- -0--- -0-----
-3---2--- -3------- -2--- -2-----
-3---3--- -3------- -3--- -3-----
-1------- -1------- ----- -------

"She visits my grave....

repeat Figure 2

"Nobody knows, nobody sees......
------ -1------- -1---3--
-1---- -1---1--- -1---0--
-0---- -2---0--- -2---0--
-2---- -3---2--- -3---0--
-3---- -3---3--- -3---2--
------ -1------- -1---3--

----------------------
----------------------
----9--(9)--------9--- repeat this bar
---10--10---12---10---
----------------------
-8--------8----8------
Verse 2

"The judge said son....

play like previous verse


Chorus

"She walks these hills.....

play like previous Chorus


Verse 3

"Well, the scaffold is high and eternity is near....

play like previous verse


Chorus

"She walks these hills.....

play like previous chorus


Piano Solo - Butch Taylor

Figure 1 - 8 times (with slight variations)

(these are examples for voicings)
-------------------------
-------------------------
--9-------7-------9-(10)-

Other versions of Long Black Veil

Alternative guitar chords and tabs for Long Black Veil by Dave Matthews Band

VersionType
Long black veilChords

[ Privacy | About us ]

Welcome to the guitar community

Why join and log in?
- Get songbook with favourite songs
- Get custom made front page
- Submit chords and tabs
- Submit guitar-cover videos
- Get a lot of thumbs up for your work

Songbook

Last visited songs

Site
Home
Search
Community
Submit chords

Video

No video for this page. Check out how you can submit guitar-cover videos here

Search tabs and chords

Browse by artist

A B C D E F G H I J K L M N O P Q R S T U V W X Y Z #


Menu

Search

Video

Bookmark

Login