Log in

One click and you are in

Login with Facebook Login with Google

Why sign up and log in

Guitar Tabs Explorer
Dave Matthews Band tabs for Lie in our graves

Guitar tabs with lyrics

Dave Matthews Band
Lie In Our Graves (from the CRASH album)
By Dave Matthews
1996 Colden Grey ltd. (ASCAP)
Tabbed By Nathan Taylor
Whomever sees this should know that this is my first posting, and it may
not be incredibly accurate, but it does the trick and sounds good.
The important stuff is at the top and it is all put together at the
bottom
of the page. This should be enough to get anyone started. Listen to the
CD
the intricacies and rythyms as there is almost no way to show this in
tablature. Dave Matthews Rocks!!!!!!!!!!


(Guitar Riff 1)
    A chord diagramD MajorD       A chord diagramG+G   (palm mute)
e--2-2-2--------x-x-|------------------3-3-3----|
B--3-3-3--------x-x-|------------------0-0-0----|
G--2-2-2--------x-x-|----------2-------0-0-0----|repeat 4 times
D--0-0-0--------x-x-|-0--2--4-----4----0-0-0----|
A--0-0-0--4--2--x-x-|------------------2-2-2-0--|
E--x-x-x--------x-x-|----------------3-3-3-3----|


***********
Figure 1
Dave (Acoustic)
(Strumming pattern not notated)

e--2-------x---------------------------x------------------
B--3-------x--------------P---P--------3------------------
G--2-------x----------2----------------0------------------
D--0-------x-0--2--4-----4-(2)-(0)-----2------------------
A----4--2------------------------------x------------------
E-----------------------------------3--3------------------

**Tim
(exact timing not notated)

e------------------------------------------------------
B-3--5--7----------------------------------------------
G------------------------------------------------------
D-4--5--7----------------------------------------------
A------------------------------------------------------
E------------------------------------------------------

... I step into the light.... Fig 1

... walking by the water.... Fig 1

NB***  Occasionally Dave tosses this in instead of Figure 1:
e--2--------x--3---0-------------------------------------
B--3--------x--3---2-------------------------------------
G--3--------x--0---2-------------------------------------
D--0--------x--0---2-------------------------------------
A------4-2--x--2---0-------------------------------------
E-----------x--3-----------------------------------------
*************



(Guitar Riff 2)              | (hammer on/pull off here)
  A chord diagramD MajorD       A chord diagramC majorC                  V
e-2-2-2------------|-0-0-0-----------------|
B-3-3-3------------|-1-1-1-----------------|
G-2-2-2-------2----|-0-0-0--0/2/0-0--------|
D-0-0-0--0-4---4-0-|-2-2-2----------4-2-4--|
A-0-0-0------------|-3-3-3-----------------|
E-x-x-x------------|-0-0-0-----------------|


*****************
Figure 2
(Dave and Tim)

e--2----------------0----------------------------------
B--3----------------1----H-P---------------------------
G--2-------2--------2---0-2-0--------------------------
D--0---0-~4--4-0----2---------4-2-4--------------------
A------------------------------------------------------
E------------------------------------------------------

... I'm blown away... Fig 2

Little Jam (played twice):
Figure 3

e--0----2----0-----------------------------------------
B--1----3----1-----------------------------------------
G--2----4----0-----------------------------------------
D--2----4----2-----------------------------------------
A--0----2----3-----------------------------------------
E------------------------------------------------------

And then back to Fig. 1


Bridge:
(Strumming pattern not notated)
e--2------------------------------------------------
B--3------------------------------------------------
G--2----~9--7---4--6--------------------------------
D--0-----0--0---0--0--------------------------------
A---------------------------------------------------
E-------~9--7---3--5--------------------------------

Then:
e------------------------------------------------------
B------------------------------------------------------
G--~12--11--6----2--4----------------------------------
D---0---0---0----0--0----------------------------------
A------------------------------------------------------
E--~12--10--5----2--3----------------------------------

Then the song goes back into Fig. 1

The song ends with:

e--3---0-----2--------------------------------------------
B--3---2-----3--------------------------------------------
G--0---2-----2--------------------------------------------
D--0---2-----0--------------------------------------------
A--2---0--------------------------------------------------
E--3------------------------------------------------------

****************************


(Bridge 1)
   A chord diagramC majorC   A chord diagramD MajorD A chord diagramC majorC A chord diagramD MajorD  (palm mute)  A chord diagramA minorAm           A chord diagramB minorBm             ?    ? Bm/Am/Bm
e--0---2-0-2--|-x-x-x-x-|--0-0---0-0--|--2-2---2-2--|--3-3---3-2-0-2--|
B--1---3-1-3--|-x-x-x-x-|--1-1---1-1--|--2-2---2-2--|--3-3---3-2-1-2--|
G--0---2-0-2--|-x-x-x-x-|--2-2---2-2--|--4-4---4-4--|--5-5---5-4-2-4--|
D--2---0-2-0--|-x-x-x-x-|--2-2---2-2--|--4-4---4-4--|--5-5---5-4-2-4--|
A--3---0-3-0--|-x-x-x-x-|--0-0---0-0--|--2-2---2-2--|--3-3---3-2-0-2--|
E--0---x-0-x--|-x-x-x-x-|--0-0---0-0--|--2-2---2-2--|--3-3---3-2-0-2--|


note that anything in < > brackets is like directions on what to do
<Verse comes in on fifth time with Guitar Riff 1 continuing>


<-Guitar Riff 2- repeat 4 times>

<then play -Bridge 1- two times>

<Short instrumental Bridge--If anyone has any idea please let me know!!>

<Then play -Guitar Riff 1- again leading into verse>

(<play -Guitar Riff 2- four times>

There is a big "solo" here with all of the instruments that is really
long and
I haven't gotten it all as of yet, so bear with me. I will include it in
my
next posting.


<Dave comes in early here without instruments>

(Verse 2)
I can't believe...

<Now play -Guitar Riff 1- with vocals for the last part>


<Big drum banging finale!>

   A chord diagramG+G     A chord diagramA augmentedA
e--3-3---0--|
B--0-0---2--|
G--0-0---2--|
D--0-0---2--|
A--2-2---0--|
E--3-3---0--|

Other versions of Lie In Our Graves

Lie in Our Graves - IntroTabs

Almost there ...

Sign in to get your own page with links to favourite songs and more. You are just one click away...

Login with Facebook Login with Google