Log in

One click and you are in

Login with Facebook Login with Google

Why sign up and log in

Guitar Tabs Explorer
Dave Matthews Band tabs for Kit kat jam

Guitar tabs

"Kit Kat Jam"
by Dave Matthews Band
from album Busted Stuff


Just heard the new Busted Stuff version of this song,
and this is what the three parts sound like. I've not
seen Dave play this, so he might have some other
crazy way of playin it... but this works.

Standard tuning e-a-d-g-b-e
h = hammer on
^ = down strum
v = up strum

Part 1
e---------------------------------------
b---------------------------------------
g---------------------------------------
d---3-3--3-3---1-----3-3--3-3-----1h3---
a---x-x--x-x-----3---x-x--x-x--1h3------
e---1-1--1-1---------1-1--1-1-----------
    ^ v  v ^         ^ v  v ^

Part 2
e---------------------------------------
b---------------------------------------
g---------------------------------------
d---13-13-12---10-10-9---6-6-5---3-3-5--
a----x--x--x----x--x-x---x-x-x---x-x-x--
e---11-11-10----8--8-7---4-4-3---1-1-3--


Part 3
e----------------
b----------------
g---6---4---3---1
d---7---5---4---2
a---7---5---4---2
e---5---3---2---0


That's it... get funky with it and it'll sound nice.
this tab is all my own work

Almost there ...

Sign in to get your own page with links to favourite songs and more. You are just one click away...

Login with Facebook Login with Google