Log in

One click and you are in

Login with Facebook Login with Google

Why sign up and log in

Guitar Tabs Explorer
Dave Matthews Band tabs for Jtr

Guitar tabs

"JTR"

Dave Matthews Band
(The Lillywhite Sessions)
12-string acoustic
(figures may vary when recalled throughout)


Intro

Figure 1
--------------------------- -------------------------------
------P-------------------- -------------------------------
-----2-0-----2~4-------4-0- ----5~4--0-(0)(0)---4--4-2--0--
-----0----0------------0--- ~3---------(0)(0)---0--0-0--0--
--------------------------- -------------------------------
--2---------------3-3------ ------------------3------------

play Figure 1 - 3 more times


Verse

"I drink you up.....

play Figure 1 - 8 times

.....you break my heart."


Pre-Chorus

"Rain, Rain.....

Figure 2
(rhythmic strumming not notated)
---------- ---------- ----------- -----------
---------- ---------- ----------- --3--------
--5---5--- --5---5--- -5---4----- --3---2----
--2---3--- --2---3--- -2---2-(0)- --1---3----
---------- ---------- ----------- ------3----
--5---5--- --5---5--- -5---3----- --3---1----

repeat Figure 2


Verse 2

"Take all you want....

play Figure 1 - 4 times

....your love for me, my love."


Chorus

"No, don't cry if it's too high....

play Figure 1 - 4 times

...with a smile you save me child...


...oh, oh, oh..."

Figure 3
---------------
---------------
---------------
-5----5----5---
-3----3----3---
-1----1----1---


Pre-Chorus

"Rain, Rain.....

play Figure 2 - 2 times

....rain down on me."


Verse 3

"Look, we play our cards.....

play Figure 1 - 4 times

.....when I'm all dried up."


Chorus

"No don't cry if it's too high....

play Figure 1 - 4 times

....with a smile you save me child."

play Figure 3


Interlude

Figure 4
-------------------- ------------------- --------------------
-------------------- ------------------- --------------------
----5--4------------ ----5--4----------- ----5--4------------
----5--5-----7--7--- ----5--5-----5--5-- ----5--5-----7--7---
----3--2--0--5--5--- ----3--2--0--3--3-- ----3--2--0--5--5---
-------------3--2--- -------------0--1-- -------------3--2---

------------------
------------------
----5--4----------
----5--5-----5----
----3--2--0--3----
-------------1----

repeat Figure 4 - 2 times then

-------------------- ------------------- --------------------
-------------------- ------------------- --------------------
----5--4------------ ----5--4----------- ----5--4------------
----5--5-----7--7--- ----5--5-----5--5-- ----5--5-----7--7---
----3--2--0--5--5--- ----3--2--0--3--3-- ----3--2--0--5--5---
-------------3--2--- -------------0--1-- -------------3--2---

            (saxes)
--------------------------
--------------------------
----5--4--(5--5--5--5--)--
----5--5--(3--3--3--3--)--
----3--2--(1--1--1--1--)--
--------------------------


Pre-Chorus

"Rain, Rain.....

play Figure 2 - 2 times

....rain down on me."


play Figure 1 - 4 times


"Rain, Rain.....

play Figure 2

....rain down on me."


(Tacit for 8 bars)

Interlude - Outro Jam

Figure 5
---------------------------- ----------------------------
---------------------------- ----------------------------
---------------------------- ----------------------------
---------------------------- ----------------------------
--7-------------5----5--5-6- --7-------------5----5--5-6-
----4--5--6--7-----7-------- ----4--5--6--7-----7--------

play Figure 5 - 7 more times

(6/8 triple-meter feel)

Figure 6
(rhythmic strumming not notated)
--------- ---------------
--------- ---------------
--------- ---------------
-(9)----- -(9)---(9)-----
--7------ --7-----7------
--0------ --4-----5------

play Figure 6 - 7 more times

then

(4/4 feel)

play Figure 5 - 4 times

then

(triple-meter feel)

-------------- ---------- -----
-------------- ---------- -----
-------------- -5--5-5-5- -(4)-
-----2-2-2-2-- -2--2-2-2- -----
--2--2-2-2-2-- -3--3-3-3- --2--
--0--0-0-0-0-- ---------- -----


The End


Scott Taylor
The Florida State University
http://www.geocities.com/sequenzax/newfrontpage.html
AOL IM: tromba1B
"Eat, drink, and be merry, for tomorrow we shall die." - Epicurus

Almost there ...

Sign in to get your own page with links to favourite songs and more. You are just one click away...

Login with Facebook Login with Google