GuitarTabsExplorer icon
GuitarTabsExplorer icon

Log in

Songbook

  • Log in to add and see bookmarks

Last visited songs

  • No songs visited yet...
Jimi Thing by Dave Matthews Band

Jimi Thing tab by Dave Matthews Band

Tabs

"Jimi Thing"

from Dave Matthews Band
Under The Table and Dreaming


Intro

Dave    [Figure 1                    ]
----------- --------------------------- ----------------------
----------- --------------------------- -------H--------------
----------- -----------H--------------- -2----6-7-------------
----------- --H----9--9-11----9-----0-- -2----7---------------
--H--7----- -9-11-----0---------11~---- -0-----------H--7-----
-7-9----9-- -0------------------------- ------------7-9----9--
Tim
----------- --------------------------- ----------------------
----------- ----------9-----9-9--9----- -2--2--H--------------
----------- -------9--9H----9-9--9----- -2--2-6-7-------------
----------- --H----9--9-11-11-9--9----- -2--2-7---------------
----------- -9-11-----0---------------- -0--0--------H--7-----
----------- -0------------------------- ------------7-9----9--

play Figure 1 - 4 times

Verse 1

Lately I've been feelin' low......

play Figure 1 - 4 times, then


...what I want is what I've not got.........

Dave
--------------------------- ----------------------
--------------------------- ----------------------
-----------H--------------- -2---2----------------
--H----9--9-11----9-----0-- -2---2----------------
-9-11-----0---------11~---- -0---0-------H--7-----
-0------------------------- ------------7-9----9--
Tim
--------------------------- ----------------------
----------9-----9-9--9----- ----------------------
-------9--9H----9-9--9----- -2---2----------------
--H----9--9-11-11-9--9----- -2---2----------------
-9-11-----0---------------- -0---0-------H--7-----
-0------------------------- ------------7-9----9--

play Figure 1 - 2 times
play first bar of Figure 1
Pre-Chorus

If you could keep me floating.........

----- ------ ----- ----------- ---- ------ ---- -5-----------
-7--- -10--- -7--- -1--1---1-- -7-- -10--- -7-- -8-----------
-7--- -10--- -7--- -0--0---0-- -7-- -10--- -7-- -5-----------
-7--- -10--- -7--- -2--3---3-- -7-- -10--- -7-- -5-----------
-5--- --8--- -5--- -3--3---3-- -5-- --8--- -5-- -------------
----- ------ ----- ----------- ---- ------ ---- ----7~~3-3-3-


Chorus

Sometime a Jimi thing......

Figure 2
-------------------- ------------------ ----- ------
-------------------- ------------------ -5--- -5----
-2------------------ -2---------------- -4--- -4----
-2--------4--------- -2------4--------- -2--- -2----
-0------------------ -0---------------- -2--- -2----
-0---3--2----0-0--3- -0--3--2---0-0--0- -0--- -4----

play Figure 2 - 2 more times

.....as I'm feelin'.

-------------------- ----------------
-------------------- ----------------
--2----------------- -2--------------
--2----------------- -2--------------
--0----------------- -0-----H--7-----
-------------------- ------7-9----9--


Verse 2

The day is gone, I'm on my back.....

Figure 1 - 4 times

...what I want is what I've not got.........

Dave
--------------------------- ----------------------
--------------------------- ----------------------
-----------H--------------- -2---2----------------
--H----9--9-11----9-----0-- -2---2----------------
-9-11-----0---------11~---- -0---0-------H--7-----
-0------------------------- ------------7-9----9--
Tim
--------------------------- ----------------------
----------9-----9-9--9----- ----------------------
-------9--9H----9-9--9----- -2---2----------------
--H----9--9-11-11-9--9----- -2---2----------------
-9-11-----0---------------- -0---0-------H--7-----
-0------------------------- ------------7-9----9--

play Figure 1 - 2 times
play first bar of Figure 1


Pre-Chorus

If you could keep me floating......

play like before


Chorus

Sometime I take a Jimi thing.....

-------------------- ------------------ ----- ------
-------------------- ------------------ -5--- -5----
-2------------------ -2---------------- -4--- -4----
-2--------4--------- -2------4--------- -2--- -2----
-0------------------ -0---------------- -2--- -2----
-0---3--2----0-0--3- -0--3--2---0-0--0- -0--- -4----

play Figure 2 - 2 more times

.....as I'm feelin'.

-------------------- ----------------
-------------------- ----------------
--2----------------- -2--------------
--2----------------- -2--------------
--0----------------- -0--------------
-------------------- ----------------


Violin Solo - Boyd Tinsley

Figure 3
--------- ---------
--------- ---------
--------- -2-------
-2------- -2-------
-2------- -0-------
-0----3-- ------3--

play Figure 3 - 3 more times
play Figure 1 - 2 times


Lately I've been feelin' low......

play Figure 1 - 3 times
play first bar of Figure 1

..........come away.


Pre-Chorus

If you could keep me floating......

play like before


Chorus

Sometime I take a Jimi thing.....

-------------------- ------------------ ----- ------
-------------------- ------------------ -5--- -5----
-2------------------ -2---------------- -4--- -4----
-2--------4--------- -2------4--------- -2--- -2----
-0------------------ -0---------------- -2--- -2----
-0---3--2----0-0--3- -0--3--2---0-0--0- -0--- -4----

play Figure 2 - 2 more times

.....as I'm feelin'.

-------------------- ----------------
-------------------- ----------------
--2----------------- -2--------------
--2----------------- -2--------------
--0----------------- -0--------------
-------------------- ----------------


Sax solo - Leroi Moore

Dave
-7---- -5---- -7--0- -5--5--5-
-8---- -5---- -8--8- -5--5--5-
-9---- -5---- -7--7- -5--7--5-
------ ------ ------ ---------
------ ------ ------ ---------
------ ------ ------ ---------
Tim
-0---- -0---- -0---- -0--0--0-
-0---- -0---- -0---- -0--0--0-
-4---- -5---- -7---- -9--7--5-
-5---- -7---- -9---- 10--9--7-
------ ------ ------ ---------
------ ------ ------ ---------

repeat previous 4 bars and fade


The End

Scott Taylor
School of Music
The Florida State University
http://www.geocities.com/sequenzax
AOL IM: tromba1B
"Eat, drink, and be merry, for tomorrow we shall die." - Epicurus

[ Privacy | About us ]

Welcome to the guitar community

Why join and log in?
- Get songbook with favourite songs
- Get custom made front page
- Submit chords and tabs
- Submit guitar-cover videos
- Get a lot of thumbs up for your work

Songbook

Last visited songs

Site
Home
Search
Community
Submit chords

Video

No video for this page. Check out how you can submit guitar-cover videos here

Search tabs and chords

Browse by artist

A B C D E F G H I J K L M N O P Q R S T U V W X Y Z #


Menu

Search

Video

Bookmark

Login