Log in

One click and you are in

Login with Facebook Login with Google

Why sign up and log in

Guitar Tabs Explorer
Dave Matthews Band tabs for If i had it all

Guitar tabs with lyrics

"If I Had It All"

Everyday
Dave Matthews Band

Intro

                                   "Sometimes I...."

(acoustic)  H
---------5-5-7-- -----7----------H-- --------
-------7-------- ---5---3---5---5-7- -5------
--~6-7---------- ------------------- --------
---------------- ---------5---x-7--- --------
---------------- -7----------------- --------
---------------- ------------------- --------


Verse 1

"...feet it seems"

(electric)      (acoustic plays top octave only)
-------------- ---------5-5~7- -------------- ---------5-5~7-
-------------- -------7------- -------------- -------7-------
-------------- --~6-7--------- -------------- --~6-7---------
-2----2----2-- -------4-7-7~9- ------2----2-- -------4-7-7~9-
-2---------0-- --~4-5--------- -7~--------0-- --~4-5---------
-0----3------- --------------- ------3------- ---------------

---------------- -----------5-5~7- ---------------- -----------5-5~7-
---------------- ---------7------- --------Harm---- ---------7-------
-------------H-- ----~6-7--------- ----------5--H-- ----~6-7---------
---2-0---2--2-4- -2-------4-7-7~9- --2-0---2---2-4- -2-------4-7-7~9-
------------0--- -0--~4-5--------- ------------0--- -0--~4-5---------
-0-----3-------- ----------------- 0-----3--------- -----------------

--------------- ---------5-5~7- ----------------- ----~5-3-2-0----
--------------- -------7------- ----------------- -------------3--
--------------- --~6-7--------- --------------H-- ----------------
---2-0---2--2-- -------4-7-7~9- --2--0---2---2-4- -2--~7-5-4-2-0--
------------0-- --~4-5--------- -------------0--- -0--------------
-0-----3------- --------------- 0------3--------- ----------------



Chorus

"And if I were a king...."

(acoustic and electric)
-0---- -0------------- ------ -0--------------
-1---- -0------------- -2---- -1--------------
-0---- -0------------- -2---- -2--------------
-2---- -2------------- -2---- -2--------------
-3---- -2------------- -0---- -0--------------
------ -0------------- ------ ----------------
(electric, acoustic plays top octave)
------ ----~5-3-2-0--- ------ ----~5-3-2-0----
------ -------------3- -2---- -1-----------3--
-5---- --------------- -2---- -2--------------
-5---- -2--~7-5-4-2-0- -2---- -2--~7-5-4-2-0--
-3---- -2------------- -0---- -0--------------
------ -0------------- ------ ----------------

(acoustic and electric)
-0---- -0------------- -2---- -2---------------
-1---- -0------------- -3---- -3---------------
-0---- -0------------- -2---- -2---------------
-2---- -2------------- -0---- -0---------------
-3---- -2------------- ------ -----------------
------ -0------------- ------ -----------------
(electric, acoustic plays top octave)
------ ----~5-3-2-0--- ------ ----------5-5~7--
------ -------------3- -2---- --------7--------
-5---- --------------- -2---- ---~6-7----------
-5---- -2--~7-5-4-2-0- -2---- --------4-7-7~9--
-3---- -2------------- -0---- ---~4-5----------
------ -0------------- ------ -----------------

          "Sometimes I feel..."

(electric, acoustic)
------- ---------5-5~7--
-5----- -------7--------
------- --~6-7----------
------- -------4-7-7~9--
------- --~4-5----------
-0----- ----------------


Verse 2

"...lost"

same as before


Chorus

"And if I were a king..."

same as before


Verse 3

"Well, I could take anything..."

same as before


Bridge

"Remembering times...."

Figure 1 (both guitars)
(electric)
------ ---------------- ------- -----------------
------ ---------------- ------- -----------------
------ ---------------- ------- -----------------
-5---- -~10---9---~12-- -11---- -~12--10---9--7--
-5---- ---------------- ------- -----------------
-3---- -~-8---7---~10-- --9---- -~10---8---7--5--
(acoustic)
------ ---------------- ------- -----------------
------ ---1---0-----3-- --2---- ---3---1---------
-0---- ---0---0-----0-- --0---- ---0---0---0--2--
-0---- ---0---0-----0-- --0---- ---0---0---0--0--
(2)--- ---------------- ------- -----------------
-3---- ---3---3-----3-- --3---- ---3---3---3--3--

repeat Figure 1 - 3 times

             "If I had it all...."

(electric, acoustic plays top octave)
---------- ---------5-5~7- ----------------- ----~5-3-2-0----
---------- -------7------- ----------------- -------------3--
---------- --~6-7--------- --------------H-- ----------------
-2-------- -------4-7-7~9- --2--0---2---2-4- -2--~7-5-4-2-0--
-2-------- --~4-5--------- -------------0--- -0--------------
-0-------- --------------- 0------3--------- ----------------


Chorus

"If I were a king...."

same as before - twice then

"If I had it all..."

Figure 2
(electric, acoustic plays top octave)
---------------- -----------5-5~7-
---------------- ---------7-------
-------------H-- ----~6-7---------
---2-0---2--2-4- -2-------4-7-7~9-
------------0--- -0--~4-5---------
-0-----3-------- -----------------

play Figure 2 - 3 more times

The End

Other versions of If I Had It All

If I had it allChords

Almost there ...

Sign in to get your own page with links to favourite songs and more. You are just one click away...

Login with Facebook Login with Google