Log in

One click and you are in

Login with Facebook Login with Google

Why sign up and log in

Guitar Tabs Explorer
Dave Matthews Band chords for If i had it all

Guitar chords

"If I Had It All"
by Dave Matthews Band
>From the album Everyday

Primary riff (intro and verse):
E------------------------|--------------------------||
B--------------10-s/12---|--------------------------||
G----------11------------|--9----7-----9----9--h11p-||
D--s/11-12---------------|---(9)----5-------7-------||
A------------------------|7-------------------------||
E------------------------|--------------------------||

Use your pinky when hammering on/off 11th fret and the
reach from 5th to 9th fret.

Chords played over riff during verse:
E/G/A
Chorus:
C/Em/A/Am

C/Em/D


Bridge:
on A chord diagramG+G (ad lib chords, use A chord diagramG+G string as the melody)

E-------------------------|
B-------------------------|
G----4---5--4---7--6------|end on Em, return to riff.
D----5---5--5---5--5------|
A-------------------------|
E----3---3--3---3--3------|

(Remembering times…)

Thanks,

Send comments/complaints to glennc100@yahoo.com

Other versions of If I Had It All

If I had it allTabs

Almost there ...

Sign in to get your own page with links to favourite songs and more. You are just one click away...

Login with Facebook Login with Google