Log in

One click and you are in

Login with Facebook Login with Google

Why sign up and log in

Guitar Tabs Explorer
Dave Matthews Band tabs for Hello again

Guitar tabs

Intro/Verse
e----3-3---3---3-3---3---3-3-3-3---3-3---3-------
b----3-1---3---3-1---3---1-1-1-3---3-3---3-------
g----0-0-3-0---0-0-3-0---0-0-3-0---0-0-3-0-------
d------------------------------------------------
a----------------------3-------------------------
e--3---------3-------------------3---------------

Last time before the Chorus
e----3-3---3---3-3---3---3-3-3-3---3-------------
b----3-1---3---3-1---3---1-1-1-3---3-------------
g----0-0-3-0---0-0-3-0---0-0-3-0---0-------------
d----------------------------------let ring------
a----------------------3-------------------------
e--3---------3-------------------3---------------
Chorus
e------------------------------------------------
b----------------------1-1-----------------------
g--3-3-------3-3-------0-0-------3-3-------------
d--x-x-------x-x-------2-2-------x-x-------------
a--1-1-------1-1-------3-3-------1-1-------------
e--3-3--1-3--3-3--1-3--3-3--1-3--3-3------1-3----

BreakDown
e---------------------6----5----5----------------
b---------------------6----6----7----------------
g-2----8----2----8----7----7----7----------------
d-3----7----3----7----8----7----7----------------
a-3----6----3----6----8----5----5----------------
e-1----8----1----8----6--------------------------
 x16  x16  x16  x16

tabbed by K DAWG

Almost there ...

Sign in to get your own page with links to favourite songs and more. You are just one click away...

Login with Facebook Login with Google