Grey Street by Dave Matthews Band

Grey Street tab by Dave Matthews Band

Guitar tabs

"Grey Street"

Dave Matthews Band
(The Lillywhite Sessions)


figures may have slight variations when recalled throughout

12-string acoustic

Revision by ReillyGd@Comcast.net

For a fuller sound, try tuning high E down to D and muting B with your 3rd
finger. Just be careful on the chorus with the A chord.

Intro

Figure 1
------------------ -------------- ----------------- --------------
------------------ -------------- ----------------- --------------
--7---4---6---2--- --4---6---2--- -7---4---6---2--- --4---6---2---
--0---0--(0)--0--- --0---0---0--- -0---0---0---0--- --0---0---0---
------------------ -------------- ----------------- --------------
--7---3---5---2--- --3---5---2--- -7---3---5---2--- --3---5---2---

repeat Figure 1


Verse

"Oh, look at how she listens....

play Figure 1 - 4 times

...how did it end like this."


Chorus

"Oh, then the wrongs in her heart fall....

[Figure 2            ]
------- ------- ------- --------
--3---- --2---- --3---- --3-----
--4---- --2---- --2---- --0-----
--4---- --2---- --0---- --0-----
--2---- --0---- ------- --2-----
------- ------- --2---- --3-----

...and the colors mix together...

------- -------
--3---- --2----
--4---- --2----
--4---- --2----
--2---- --0----
------- -------

...to grey. Grey Street."

play Figure 1


Verse 2

"Begging now the difference....

play Figure 1 - 4 times

....to get out of this place"


Chorus

"But soon the wrongs in her heart fall.....

play Figure 2 twice

...and the colors mix together...

------- -------
--3---- --2----
--4---- --2----
--4---- --2----
--2---- --0----
------- -------

...to grey. On Grey Street."

play figure 1


Verse 3

"It's all colored in again, take what you can from your dreams....

play Figure 1 - 4 times

...I live on the corner of Grey Street and the end of the world."

Chorus

"And the wrong in her whole plan....

play Figure 2 - 3 times

...and the colors mix together...

------- -------
--3---- --2----
--4---- --2----
--4---- --2----
--2---- --0----
------- -------

...to grey. On Grey Street."

play Figure 1 twice


Chorus

"If you don't see your heaven....

play Figure 2 - 4 times

...and the colors mix together...

------- -------
--3---- --2----
--4---- --2----
--4---- --2----
--2---- --0----
------- -------

...to grey. On Grey Street."

play Figure 1 twice


Outro

Figure 1 until end


The End

Other versions of Grey Street

Alternative guitar chords and tabs for Grey Street by Dave Matthews Band

Find guitar tabs and chords

A B C D E F G H I J K L M N O P Q R S T U V W X Y Z #