Log in

One click and you are in

Login with Facebook Login with Google

Why sign up and log in

Guitar Tabs Explorer
Dave Matthews Band chords for Grace is gone

Guitar chords

Grace Is Gone

Here's A chord diagramA augmentedA good one for all you dave fans:


VERSE:

E----------------------------------------------------------------
B-----3---3--3--3-3---3----3--3--3-3-----3--3--3----3--3--3------
G-----0h2-2--2--2-2---2h4--2--2--2-2-----2--2--2----2--2--2------
D-----0---0--0--0-0---0----0--0--0-0---4-------4--2-------2------
A----------------------------------------------------------------
E----------------------------------------------------------------
E----------------------------------------------------------------
B-----3---3--3--3-3---3----3--3--3-3----------------3------------
G-----0h2-2--2--2-2---2h4--2--2--2-2---------0------2------------
D-----0---0--0--0-0---0----0--0--0-0------2---------0h2----------
A--------------------------------------3-------------------------
E----------------------------------------------------------------


CHORUS:

E-------3-3-3-3-3-3-----2-2-2-2-2-2------3-3-3-3-3-3-----2-2-2-2-2-2---
B-------3-3-3-3-3-3-----3-3-3-3-3-3------3-3-3-3-3-3-----3-3-3-3-3-3---
G-------0-0-0-0-0-0-----2-2-2-2-2-2------0-0-0-0-0-0-----2-2-2-2-2-2---
D-------0-0-0-0-0-0---0-0-0-0-0-0-0------0-0-0-0-0-0-----0-0-0-0-0-0---
A-------------------------------------2----------------0---------------
E-----3----------------------------------------------------------------
"Excuse me please......"


E-------3-3-3-3-3-3-----2-2-2-2-2-2------3-3-3--3-3-3-----3-3-3---2---
B-------3-3-3-3-3-3-----3-3-3-3-3-3------3-3-3--3-3-3-----3-3-3---3---
G-------0-0-0-0-0-0-----2-2-2-2-2-2------0-0-0--0-0-0-----0-0-0---2---
D-------0-0-0-0-0-0---0-0-0-0-0-0-0------0-0-0--0-0-0-----0-0-0---0---
A-------------------------------------2--------2-------4--------------
E-----3---------------------------------------------------------------


And that's pretty much it.  Enjoy!
Tabbed by Lee Miller
Special Thanks to my friends at Calvin

Other versions of Grace Is Gone

Grace is gone (Ver. 2)Chords

Almost there ...

Sign in to get your own page with links to favourite songs and more. You are just one click away...

Login with Facebook Login with Google