Log in

One click and you are in

Login with Facebook Login with Google

Why sign up and log in

Guitar Tabs Explorer
Dave Matthews Band tabs for Fool to think

Guitar tabs with lyrics

"Fool To Think"

Everyday
Dave Matthews Band

Intro

Figure 1
---------------- ---------- ---------------- -----------
---------------- ------3--- ---------------- -----------
-------------7-- ------0--- -----4-------6-- -------4---
-----4-----5---- ----4----- ---------------- -----------
---2-----3------ --5------- ---5-------7---- -----5-----
-0-------------- ---------- -3-------5------ ---3-------

repeat Figure 1


Verse 1

"Look at me..."

play Figure 1 - 4 times


Chorus

time shifts to 9/8

"Was I a fool to think...."

(3 distorted electrics)
E----------------------------
B----------------------------
G---7------------------------  repeat 3 more times then
D---7------------------------
A---5------------------------
D----------------------------
w/
----10----------10-------10--
-10----10----10-------10-----
----------14-------14--------  repeat 15 more times
-----------------------------
-----------------------------
-----------------------------
w/
-----------5-----------------
--------------------5--------
-----6--7-----7--6-----6--7--  repeat more 15 times
--0--------------------------
-----------------------------
-----------------------------

(part 1) (parts 2 and 3 keep repeating)
E------- ------- ------- -------
B------- ------- ------- -------
G--7---- --7---- --7---- --7----
D--5---- --5---- --7---- --7----
A--5---- --5---- --5---- --5----
D--5---- --5---- ------- -------

then part 1 repeats previous 8 bars


Verse 2

"I've grown tired..."

same as before


Chorus

"Was I a fool to think...."

same as before


Interlude

(standard tuning)
--------------------- --------------- --------------------
--------------------- --------------- --------------------
-----11-----------9-- ------9-7~12--- -----11------7---9--
---9---------12-7---- ----7---------- ---9-------9---7----
-7--------10--------- --------------- -7------10----------
--------8------------ -10------------ --------------------

-------------------
-------------------
------9------------
----7---9--10--12--
-------------------
-10----------------

repeat previous 4 bars - 3 more times then


----10----------10-------10--
-10----10----10-------10-----
----------14-------14--------  repeat once
-----------------------------
-----------------------------
-----------------------------
w/
-----------5-----------------
--------------------5--------
-----6--7-----7--6-----6--7--  repeat once
--0--------------------------
-----------------------------
-----------------------------


Chorus

"Was I a fool to think...."

same as before


Outro

"You make a mess of me..."

repeat Chorus material

then

E-------- ---------------
B-3------ -(3)-----------
G-2------ -(2)-----------
D-0------ -(0)-----------
A-0------ -(0)-----------
D-0------ -(0)-----------

The End

Almost there ...

Sign in to get your own page with links to favourite songs and more. You are just one click away...

Login with Facebook Login with Google