Log in

One click and you are in

Login with Facebook Login with Google

Why sign up and log in

Guitar Tabs Explorer
Dave Matthews Band chords for Everyday

Guitar chords with lyrics

Name:Blake (distractedkid@msn.com)
Title of Album:Everyday

This is my own work.

er were completely correct so i tabbed it myself.  I found that what seem=
ed the most correct was just a combination of the two.
Verse:

Riff 1                           |Riff 2
---------------------------------------------
e/-------------------------------|-------S--|
B/-------5-------5-----5-------5-|-------T-4|
G/-----5-------5-----5-------5---|-------R-4|
D/---3-------5-----3-------5-----|-----4-U-4|
A/---0-----3-------0-----3-------|---2---M--|
E/-------------------------------|----------|


Riff 1: is all of the verses, so it goes

               Riff 1
Pick me up love, from the ..., up to the top ....,

Riff 2: is when he say "EVERYDAY"

Repeat that until you come to "all you need is, all you want is, all you =20
                               need is..."
When that comes play Am,C,Am,G


Chorus:
A chord diagramA minorAm              A chord diagramC majorC               A chord diagramA minorAm               A chord diagramG+G
All you need is,All you want is,All you .... is love.

A chord diagramA minorAm                A chord diagramC majorC               A chord diagramA minorAm             A chord diagramG+G
All you need is, all you want.., all you ....is love.

at the end of "love" play e an A chord diagramBB chords at the fifth fret then move them =
back down to three.  Listen to the song if you do not understand.
                               Chords
 "love"|                  A chord diagramA minorAm  |  A chord diagramC majorC  |  A chord diagramG+G  |
---------------        --------------------
e/--3--|-5--3-|        e/--0--|--0--|--3--|
B/--3--|-5--3-|        B/--1--|--1--|--3--|
G/--0--|------|        G/--2--|--0--|--0--|
D/--0--|------|        D/--2--|--2--|--0--|
A/--2--|------|        A/--0--|--3--|--2--|
E/--3--|------|        E/-----|-----|--3--|

The only part i'm not completely sure of is the bridge. But it does the j=
ob just fine.  Its all strummed and it goes like this


Bridge:
     A chord diagramA minorAm  |   A chord diagramC majorC   | Riff2 | dunno |   A chord diagramFF   |
------------------------------------------
e/---0---|---0---|-------|-------|-------|
B/---1---|---1---|---5---|-------|-------|
G/---2---|---0---|---5---|---4---|---2---|
D/---2---|---2---|---5---|---5---|---3---|
A/---0---|---3---|---3---|---5---|---3---|
E/-------|-------|-------|---3---|---1---|

When you end the bridge and go back to the chorus you end on "dunno".

Am(about 4 strums)C(4 strums)Riff2(4 strums)Dunno(quick2strums)F(sameasDU=
N)
                         What ... got,
                         Lay .... on me,
                         What ... got,
                         Lay .... on me, (then end on Dunno)

Well that's pretty much it.  I'm sure this all confused you as much as it=
 confused me but i hope my long explinantions will help you understand ho=
w to play the song better.  To get the full understanding listen to and p=
lay along with the song for timing and how to play the chords.  Well i'm =
done talkin. See ya.Get more from the Web.  FREE MSN Explorer download : =
http://explorer.msn.com

Other versions of Everyday

Everyday acousticTabs

Almost there ...

Sign in to get your own page with links to favourite songs and more. You are just one click away...

Login with Facebook Login with Google