Log in

One click and you are in

Login with Facebook Login with Google

Why sign up and log in

Guitar Tabs Explorer
Dave Matthews Band tabs for Dressed in black

Guitar tabs

"Dressed In Black"
artist: Dave Matthews
unreleased song, as performed on the 5/9/01 soundcheck


Note: This song sounded like it was in the "development process"
      as Dave was kinda just playin around with it and improving
      lyrics. Part 1 was consistant but part 2 varied as he messed
      around with it.
standard tuning e-a-d-g-b-e

part 1
e------------------------------------------------------------
b------------------------------------------------------------
g-------11---11--------------------------------9-------------
d-----9----9----9-------12----12---------9---9---9----6----7-
a---7----------------10----10----10----7---7--------4----5---
e------------------8-----------------5-----------------------

Part 2
e--------------------------------------------
b-------0h1------0h1p0-------1---------------
g-------0~~------0~~~~-------0-----0-----0---
d-------0h2------0h2p0-------2-------0-----0-
a------------------------3-3-----3-----2-----
e---3-3------1-1-----------------------------

Almost there ...

Sign in to get your own page with links to favourite songs and more. You are just one click away...

Login with Facebook Login with Google