Log in

One click and you are in

Login with Facebook Login with Google

Why sign up and log in

Guitar Tabs Explorer
Dave Matthews Band tabs for Digging a ditch

Guitar tabs

"Digging a Ditch"

Dave Matthews Band
(The Lillywhite Sessions)
figures played with variations when recalled throughout


Intro

--------------------- ------------------- -----------------------
--------------------- ------------------- -----------------------
--------------4------ -------4----------- -----------------------
-----5--5--5--5---5-- ----5-------5--5-5- ----5----5-----------5-
-----5--5--5-(5)----- -3-------3--------- ----5------------------
-3------------------- ------------------- -3-----3---3--3--3--3--

---------------------
---------------------
---------------------
----5-------5-(5)-5--
-3------3------------
---------------------


Verse 1

"Run to your dreaming when you're alone.....

Figure 1
--------------------- ------------------------ ------------------
--------------------- ------------------------ ------------------
----4---------------- ----4------------------- ------------------
----5-------------5-- ----5--5-----------5-5-- ----5----5----5-5-
----5---5-------5---- -3--------3-(3)-3------- ----5-------------
-3---------3--3------ ------------------------ -3--3--3----3-----

-------------------- -------------- ------------
-------------------- -------------- ------------
----5------4--*----- ----4--------- ------------
----5--5------5--5-- ----5--5------ -(5)--------
-3--3----3---------- ----5--------- --3---------
-------------------- -3-------3---- ------------
(*=accidental harmonic)


....get heavy on with digging your ditch. Cause I'm...."


Chorus

"Digging a ditch where madness gives....

(arpeggiate ad libitum)
Figure 2
------- ------- ------- ------------------------
------- ------- ------- ------------------------
------- --5---- ------- -5-----5---4------------
--5---- --5---- --5---- -5--~3---2-----4---5----
--5---- --3---- --5---- -3-----------2---3---5--
--3---- ------- --3---- ------------------------

repeat Figure 2 then

"Where all these troubles...."

------- --------------
------- --------------
------- --------------
--5---- --5---5---5---
--5---- --3---2---0---
--3---- -(3)----------

"Run to your deaming....."

------ ------- ------ --------
------ ------- ------ --------
------ --5---- ------ --5-----
-5---- --5---- -5---- --5-----
-5---- --3---- -5---- --3-----
-3---- ------- -3---- --------

....that hold heavy on my heart will die."

Figure 3
------------------------- ----------------
-------3----------------- ------1---------
-------0-----------0----- ------0---------
----4-----4-----4-----4-- ----2-----------
-5-----------5----------- --3-------------
------------------------- ----------------

repeat Figure 3


Verse 2

"Run to your dreaming....

play Figure 1 with variations

(based on these chords)
A chord diagramG+G     A chord diagramCmaj7Cmaj7
------ -----------
------ -----------
--4--- --4-(5)----
--5--- --5--------
--5--- --3--------
--3--- -----------

...get heavy on with digging your ditch. Cause I'm..."


Chorus

"Digging a ditch where madness gives...."

play Figure 2 then

"Digging a ditch for when I'm through...."

------ ------- ------ --------
------ ------- ------ --------
------ --5---- ------ --5-----
-5---- --5---- -5---- --5-----
-5---- --3---- -5---- --3-----
-3---- ------- -3---- --------

"Where all these disappointments....."

------ ------- ------ --------
------ ------- ------ --------
------ --5---- ------ --5-----
-5---- --5---- -5---- --5-----
-5---- --3---- -5---- --3-----
-3---- ------- -3---- --------

------ -------
------ -------
------ --5----
-5---- --5----
-5---- --3----
-3---- -------


Verse 3

"Run to your dreaming....

play Figure 1 with variations

...get heavy on with digging your ditch. Cause I'm..."


Chorus

"Digging a ditch where madness gives...."

(doubled by distorted guitar ad lib.)
------- ------------------------
------- ------------------------
------- -5-----5---4------------
--5---- -5--~3---2-----4---5----
--5---- -3-----------2---3---5--
--3---- ------------------------

------ ------- ------ --------
------ ------- ------ --------
------ --5---- ------ --5-----
-5---- --5---- -5---- --5-----
-5---- --3---- -5---- --3-----
-3---- ------- -3---- --------

....that weigh down on me will die."

then Figure 3 - 3 times


Outro

"Run to your dreaming when you're alone....."

play Figure 1 - with variations

"....get heavy on with digging your ditch."

The End


Scott Taylor
The Florida State University
http://www.geocities.com/sequenzax/newfrontpage.html
AOL IM: tromba1B
"Eat, drink, and be merry, for tomorrow we shall die." - Epicurus

Other versions of Digging A Ditch

Digging a ditchChords

Almost there ...

Sign in to get your own page with links to favourite songs and more. You are just one click away...

Login with Facebook Login with Google