Log in

One click and you are in

Login with Facebook Login with Google

Why sign up and log in

Guitar Tabs Explorer
Dave Matthews Band tabs for Cortez the killer  haynes lead

Cortez The Killer Haynes Lead tab by Dave Matthews Band

Dave Matthews Band tabs for Cortez the killer  haynes lead

Guitar tabs

still working on this, but thought I would start to post as I get it.

Cortez the Killer (Live) Feat. Warren Haynes
Dave Matthews Band
bchew22@yahoo.com
      h - hammer on
      p - pull off
      b - bend string up
      r - release bend
      / - slide up
      \ - slide down
      ~ - vibrato
      t - tap (with strumming hand)
      x - muted, struck string


intro (w/ distortion)
A chord diagramE MajorE -> A chord diagramDmDm -> A chord diagramA minorAm

E----------------------|
B----------------------|
G------7-7-------------| <- intro lick
D--7/9-----9\7-5-------|    band enters
A----------------7-5-7-|
E----------------------|

E--------10-------10----8-|---------------------------------|-----------------------------|
B------10-------10-----8--|-8h10-8h10-8-------8h10-8h10-8---|-----------------------------|
G----12-------11------9---|-9----9-------9----9----9-------9|--14b16----------------------|
D--12---------------------|---------------------------------|-----------------------------|
A-------------------------|---------------------------------|-----------------------------|
E-------------------------|---------------------------------|-----------------------------|

E----------------------|---------------------------|--------------------------------------|
B----------------------|----15b17~~~-17r15p12-15---|--15b17r15--13-12-13-12---------------|
G--16r14p12-14b16~~~~~-|--x------------------------|------------------------14-12-14-12---|
D----------------------|x--------------------------|--------------------------------------|
A----------------------|---------------------------|--------------------------------------|
E----------------------|---------------------------|--------------------------------------|

E------------------------------------|-------------------------12-14-14b15-14b15r14p12-14-|
B------------------------------------|-------15-------------12----------------------------|
G----------------12-12h14-12h14------|-14b16----14b16~~~----------------------------------|
D-14-12-14----14---------------------|----------------------------------------------------|
A------------------------------------|----------------------------------------------------|
E------------------------------------|----------------------------------------------------|

E-14b15r14---14-12h14--------------------------------------------------------------------|
B---------------------15-12h13-----------------------------------------------------------|
G-------------------------------14-12-14b16r14-12-14-12----------12-14b16r14b16r14-------|
D-------------------------------------------------------14-12-14-------------------------|
A----------------------------------------------------------------------------------------|
E----------------------------------------------------------------------------------------|
									  "Came dancing..."

E----------------------------------------------------------------------------------------|
B----------------------------------------------------------------------------------------|
G----------------------------------------------------------------------------------------|
D----------------------------------------------------------------------------------------|
A----------------------------------------------------------------------------------------|
E----------------------------------------------------------------------------------------|

E----------------------------------------------------------------------------------------|
B----------------------------------------------------------------------------------------|
G----------------------------------------------------------------------------------------|
D----------------------------------------------------------------------------------------|
A----------------------------------------------------------------------------------------|
E----------------------------------------------------------------------------------------|

E----------------------------------------------------------------------------------------|
B----------------------------------------------------------------------------------------|
G----------------------------------------------------------------------------------------|
D----------------------------------------------------------------------------------------|
A----------------------------------------------------------------------------------------|
E----------------------------------------------------------------------------------------|

Almost there ...

Sign in to get your own page with links to favourite songs and more. You are just one click away...

Login with Facebook Login with Google