Christmas Song by Dave Matthews Band

Christmas Song tab by Dave Matthews Band

Guitar tabs

DaveMatthewsBand
from Remember Two Things
Christmas Song
*------------*
Tabbed by : Todd Iceton, idmbi@aol.com
*------------------------------------*
revisions by: Brad Defnall bmdefnall@mediaone.net
*------------------------------------*

same. I played that version a few times and it just didn't sound right. =
 After a while of tinkering it goes more like this:

1------------------------- * =3D optional
2------------------------- / =3D slide up
3-7------------------0---- \ =3D slide down
4-4/5\4-0--7---------0*---
5----------4/5\4-0---2----
6-------------------------

This is the main riff, the chords are G, A, Bm, not Dm as previously =
stated.



"She was his girl,     he was her boy-friend.."
                ..... hus-band.."
1--------------------------------------------------
2--------------------------------------------------
3-7------------------0----------------7------------
4-4/5\4-0--7---------0*---------------4\-5---------
5----------4/5\4-0---2-------------------5---------
6--------------------------------------------------


 "shower him with love, love, love..."
                 G      A     Bm


Listen to the song, the main riff is played a lot. When the song ends, =
it ends on G, A, D.

Find guitar tabs and chords

A B C D E F G H I J K L M N O P Q R S T U V W X Y Z #