Log in

One click and you are in

Login with Facebook Login with Google

Why sign up and log in

Guitar Tabs Explorer
Dave Matthews Band tabs for Busted stuff

Guitar tabs

"Busted Stuff"

Dave Matthews Band
(The Lillywhite Sessions)
play all figures with slight variations when recalled throughout


Intro

Figure 1
---------------- ------------------ ------------------------
--H------------- ------------------ ------------------------
---0------------ ---0-------------- ---0------------2-------
-0-2--0--2--5--- -0-2--0--(2)--4--- -0-2--0--2--2---0--(4)--
---3--------5--- ---3----------5--- ---3-------(3)------5---
------------3--- --------------5--- ------------5---2---5---

----------------
----------------
----------------
--2---5--5------
-(3)--5--5------
--5---3--3------


Verse

"Not enough, never too much.....

play Figure 1 twice

.....but leave a trail of busted stuff."


Chorus

"I know she's gonna leave my broken heart behind her....

Figure 2
----------- ----------- --------- -----------
----------- ----------- --------- -----------
----------- --4----2--- --------- -(2)--4----
--4----2--- --0----0--- --4---2-- --0---0----
--5----3--- ----------- --5---3-- -----------
--5----5--- --3----2--- --5---5-- --2---3----

repeat figure 2

....I take what she's given up, yeah."


then play figure 1, doubled by distorted guitar (til end)


Verse 2

"Sweet sugar lips......

play figure 1 twice

....she got me down here lookin' up."


Chorus

"I know she's gonna leave my broken heart behind her....

play figure 2 then

----------- ----------- --------- -----------
----------- ----------- --------- -----------
----------- --4----2--- --------- --0--------
--4----2--- --0----0--- --4---2-- --2---4----
--5----3--- ----------- --5---3-- --3---5----
--5----5--- --3----2--- --5---5-- ------5----

...I know's she gonna leave my broken heart behind, yeah yeah."


Bridge

Figure 3
------- ---------
------- ---------
------- ---------
--5---- -(5)-----
--5---- -(5)-----
--6---- -(6)-----


Verse 3

"And she moves, she moves so cool....

play figure 1 twice

...woman looks just like love."


Chorus

"I know she's gonna leave my broken heart behind....

play figure 2 twice then

----------- ----------- --------- -----------
----------- ----------- --------- -----------
----------- --4----2--- --------- --0--------
--4----2--- --0----0--- --4---2-- --2---4----
--5----3--- ----------- --5---3-- --3---5----
--5----5--- --3----2--- --5---5-- ------5----

...I know she's gonna leave a broken man behind, hey hey...."


Bridge

play figure 3


Outro

play figure 1

"I know she's gonna leave my broken heart behind...."

play figure 2

"hey, hey...."

play figure 3 til end

(fade out)


The End


Scott Taylor
The Florida State University
http://www.geocities.com/sequenzax/newfrontpage.html
AOL IM: tromba1B
"Eat, drink, and be merry, for tomorrow we shall die." - Epicurus
ⓘ Guitar tab for 'Busted Stuff' by Dave Matthews Band, a rock band formed in 1991 from Charlottesville, Virginia, USA. Dave Matthews Band is known for their cheerful rock/pop music.

Almost there ...

Sign in to get your own page with links to favourite songs and more. You are just one click away...

Login with Facebook Login with Google