Big Eyed Fish by Dave Matthews Band

Big Eyed Fish tab by Dave Matthews Band

Guitar tabs

"Big Eyed Fish"
artist: Dave Matthews Band
ablum: Busted Stuff


Notes: Dave plays this on a twelve string
standard tuning e-a-d-g-b-e
\ = slide down
x = mute
^ = down strum
v = up strum

Intro & Verse
e--------------------------------------
b--------------------------------------
g--------------------------------------
d-------9\---5-5-5-5---5-5-5-5\--4--4--
a---7---7\---3-3-3-3---2-2-2-2---2--2--
e---0---0\---0-0-0-0---0-0-0-0---0--0--
       ^ v v ^  ^ v v ^

Chorus
e---0---0---3---2---
b---0---1---0---3---
g---0---0---0---4---
d---2---2---0---4---
a---2---3---2---2---
e---0---3---3---0---
   Oh god, under...

Interlude
e-------------------0--
b---3---8-----------3--
g---x---x-----------0--
d---4---9-----------4--
a---2---7-----------5--
e---3---8--------------
  no way...    ohhhh...

Violin plucking
e--------------------------10-12--
b--------------10----10-12--------
g------9-11-12----12--------------
d---12----------------------------
a---------------------------------
e---------------------------------

Other versions of Big Eyed Fish

Alternative guitar chords and tabs for Big Eyed Fish by Dave Matthews Band

Find guitar tabs and chords

A B C D E F G H I J K L M N O P Q R S T U V W X Y Z #