Log in

One click and you are in

Login with Facebook Login with Google

Why sign up and log in

Guitar Tabs Explorer
Dave Matthews Band tabs for Best of whats around

Best Of Whats Around tab by Dave Matthews Band

Dave Matthews Band tabs for Best of whats around

Guitar tabs

i have added the full lyrics to this tab.  enjoy.

-dan.
>The following is courtesy of
>Kwon (BH7N@MUSICB.MCGILL.CA)

>Best of What's Around
>---------------------

>(from 7/6/93)
>Verses
>         Hey          ..
>  A chord diagramA minorAm                A chord diagramC majorC         A chord diagramFF       A chord diagramD MajorD triad
>e------------------------------------------------------------
>b------------------------------------------------------------
>g----------5-------------------------------------------------
>d--------7---7-7 >-10---10----3-3-3--->12-12-12--12-12-------
>a--------------7->-10---10----3-3-3--->-9--9--9---9--9-------
>e--2 > 5--------------8-------1-1-1--->10-10-10--10-10-------


> care to ..

>  A chord diagramC majorC     A chord diagramA minorAm             A chord diagramFF slide up A chord diagramD MajorD triad. (like above) and repeat
>e------------------------------------------------------------
>b------------------------------------------------------------
>g----------------5-------------------------------------------
>d-5-5-5--------7---7-----------------------------------------
>a-3-3-3------------------------------------------------------
>e--------2 > 5-----------------------------------------------

>hey my ..
>care to ..
>would ..
>to get ..

>Chorus 1
>  you & ..
>   A chord diagramA augmentedA   A chord diagramC# minorC#m    A chord diagramF# minorF#m    C3m  A chord diagramD MajorD       A chord diagramA augmentedA    A chord diagramE MajorE       A chord diagramA augmentedA
>e--5----0------2------0------------------------5-------------
>b--5----5------2------5------------------------5-------------
>g--6----6------2------6---7-------2----1-------6-------------
>d--7----6------4------6---4-------2----2-------7------repeat-
>a--7----4------4------4---5-------0----2-------7-------------
>e--5-----------2-----------------------0---4---5-------------


>see you ..
>have ..
>so can ..
>and ..

>Chorus 2

>  turns..
>   A chord diagramA augmentedA    A chord diagramC# minorC#m      A chord diagramB minorBm                  A chord diagramG+G                (like intro)
>
>  and hurts not much when you're around

>Verse 2 (like verse 1)

>Chorus 3
>Chorus 4

>turns out ..


[solo]


Chorus 2

>Outro

>  "Hey la la la" is the same as chorus 1

enjoy,
dan.

Almost there ...

Sign in to get your own page with links to favourite songs and more. You are just one click away...

Login with Facebook Login with Google