Ants Marching by Dave Matthews Band

Ants Marching chords by Dave Matthews Band

Guitar chords with lyrics

I finally figured it out!

Ants Marching
On either "Under the Table and Dreaming" or "Remember Two Things" -- "RTT" is a great album, check it out-

On to the musique
Verse Strum
      He wakes up in the morning........
    D Am7Bm7x2 D G  Am7Bm7
e------------------------------------------------------------------------------------
b------------------------------------------------------------------------------------
g------------------------------------------7--7---------------------------------------
d------7-----5/7--5/7---7-------5/7--7--7--7--7-------------------------------
a------5-----7/9--7/9---5---5---7/9--9--9--9--5------------------------------
e--------------------------------3------------------------------------------------------

He ..
Does his ..
He ..
The ..

She ..
e---------------
b---------------
g---------------
d---------------
a---5--5----------
e---3--3----------

We ..
Wondering ..
But...
And ..

In concerts (including RTT) , DMB skips this, but it is played on Under the Table..

Continue verse strum, and sing

Take ..
Place..
F#    D
quieter.
G            B  A
Lights ..

Start verse strum on "die"

Goes ..
She ..
His ..
And ..
Playing ..

Chorus
F#       D     G B A
Take ..
F#   D      G    B A
Place ..
F#    D   G          B  A
quieter ..

Start verse strum on "die"

Driving ..
All ..
People ..
e-----------------------------------------------
b----------------------------------------------
g-------------------------------------7------
d--------------------------------5/7--7---7-
a---5----------------------------7/9--9---5-
e---3------------------------------------------



No words ..
e--------------------------------------------------------------
b--------------------------------------------------------------
g---------------------------------------------------------------
d---7-------------------------------------------------------------
a---5------------------5------------------------
e----------------------3----------------------

F#    D   G      B   A
All ..
F#     D     G    B   A
Red ..
F#     D     G    B  A
They..
F#     D     G    B  A
They ..

Do an entire measure of verse strum on "way"
waaaaaaaaaaaaaaaaaaaayeah!

Candyman..
Sweet ..
Program ..
Cut Cut
On..
Cut Cut

Chorus
F#       D     G B A
Take ..
F#   D      G    B A
Place ..
F#    D   G          B  A
quieter ..

Start verse strum on "die"

Solos alternate between chorus and verse strums
finish on
                    G  D
Lights..

This is my first tab, but I've been using the archive for a long time
Comments +/-?

Dave
Schultz1@capaccess.org
Thanx

Other versions of Ants Marching

Alternative guitar chords and tabs for Ants Marching by Dave Matthews Band

Find guitar tabs and chords

A B C D E F G H I J K L M N O P Q R S T U V W X Y Z #