Angel by Dave Matthews Band

Angel tab by Dave Matthews Band

Guitar tabs

"Angel"

Everyday
Dave Matthews Band


Baritone Guitar
(arranged for standard guitar)

**some notes have been placed an octave higher to avoid alternate tuning
(there is no real benefit to retuning on this song)**

Intro

-------------------------- ---------------------------
-------4------------------ ---------------------------
--4----4------------------ -------------------1--x-x--
--4-6--4--4----4--x------- -----x--2--x-x-----2--x-x--
---H------4-6--4--x--2-4-- -2---x--2--x-x-----2--x-x--
-----------H----------H--- -0---x----------0----------

Figure 1
----------------------------- ------------------------
-----4----4------------------ ------------------------
-----4----4------------------ -----------------1------
-----4-6--4--4----4--x------- -----x--2--------2--4---
-2----H------4-6--4--x--2-4-- -2---x--2---2----2------
--------------H----------H--- -0---x----0---0---------


Verse 1

"I call you up..."

play Figure 1 - 4 times with

Figure 2
(acoustic)
--0---- --0--------
--0---- --0--------
--8---- --9--------
--9---- --9--------
--9---- --7--------
--7---- -----------

play Figure 2 - 3 more times


Figure 3 (both guitars)
(electric)
---------------------- ----------------------
---------------------- ----------9----7---5--
---------6----6----6-- ----------------------
--4------------------- -2--x--~9----7-----6--
--4----4----6----7---- -2--x-----------------
--2------------------- -0--x-----------------
(acoustic)
--2------------------- -0--------------------
--2------------------- -0--------------------
--3------------------- -1--------------------
--4------------------- -2--------------------
--4------------------- -2--------------------
--2------------------- -0--------------------

play Figure 1 w/ Figure 2
play Figure 3

----------------------------- ----------------------
-----4----4------------------ ----------------------
-----4----4------------------ -------------------8--
-----4-6--4--4----4--x------- -----x--2---2---------
-2----H------4-6--4--x--2-4-- -2---x--2---2---6-----
--------------H----------H--- -0---x------0---------

w/Figure 2


Chorus

"Why do I beg...."

------------------------ ---------------------
------------------------ ---------------------
---------------------6-- ------------------H--
-6--6-6-6--x-6--x----6-- ------2-4-----2--2-4-
-4--4-4-4--x-4--x-6--8-- -4--4------4---------
------------------------ -2--2------2---------

------------------------ ----------------
------------------------ -2------2-------
---------------------6-- -2------1-------
-6--6-6-6--x-6--x----6-- -4------2-------
-4--4-4-4--x-4--x-6--8-- -4------4-------
------------------------ -2------0-------

----------------- -2---- ----------------------
----------------- -1---- -2---2----------------
-3-3-3-3-3-3-3--- -2---- -2---2----------------
-1-1-1-1-1-1-1--- ------ -4---4--2-------------
----------------- ------ --------2--2-2-2-2--4-
----------------- ------ -0---------0-0-0-0----


Verse 2

"I play my cards...."

same as before


Chorus

"Why do I beg..."

same as before


Verse 3

"Watch the deck..."

play Figures 1 and 2 - 2 times\

----------------------------- -----------------------
----------------------------- -----------------------
-----4----4------------------ -------------------1---
-----4-6--4--4----4--x------- ---------2-------2-----
-2----H------4-6--4--x--2-4-- -2--2--2-----2-2-------
--------------H----------H--- -0---------0-----------

------------------------------ -------------------------
------------------------------ -------------------------
-----4----4------------------- --------------------1----
-----4-6--4--4----4----x------ ------------2-------2--4-
-2----H------4-6--4-6--x-2-4-- -2--2--2--2-----2-4-4----
--------------H----H------H--- -0------------0----------


Chorus

"Why do I beg..."

same as before

                 "When you're gone..."

------------------------------- ---------------------
------4----4------------------- ---------------------
-x-x--4----4------------------- --------1--1--x--x---
-x-x--4-6--4--4----4----------- --------2--2--x--x---
-------H------4-6--4--6~--2-4-- -2---2---------------
--------------H------------H--- -0-------------------


w/Figure 2
----------------------------- --------------------
-----4----------------------- --------------------
-----4----4------------------ --------------------
-----4-6--4--4----4--x------- --------------------
------H------4-6--4--x--2-4-- -2------------------
--------------H----------H--- -0------------------

The End

Other versions of Angel

Alternative guitar chords and tabs for Angel by Dave Matthews Band

Find guitar tabs and chords

A B C D E F G H I J K L M N O P Q R S T U V W X Y Z #