Log in

One click and you are in

Login with Facebook Login with Google

Why sign up and log in

Guitar Tabs Explorer
Dave Matthews tabs for Up and away

Guitar tabs with lyrics

"Up and Away"

Dave Matthews
Some Devil
Intro
Figure 1 - varies slightly throughout
acoustic
------------------------ ------------------------
----5~-----3-----3----0- ---1--------------0-----
----5~-----------4------ ---2-0--4-2-0---2---0-0-
-------0------------0--- --------0-----4---------
-3-------2---2-2-------- -0----------------------
------------------------ --------3---------------

repeat Figure 1


Verse

"Everyday, everyday with you...."

Figure 1 - 3 times then

"got me all up and away..."

---3----2--- ----------
---3----3--- -2-----1--
---0----4--- -2-----2--
--------4--- -2-----2--
--------2--- -0-----0--
-3---------- -----------

Figure 2
         P              P                H P
--------10-8-x---------10-8-x---- -------7-8-5---------------
------0--8---x-0---8-0--8---x-0-- -----0-5-----0-------------
----9----------0--7-----------0-- --5----------0-4-2-0-2-0-0-
---10---------------------------- ----7----------0----4-4----
--------------------------------- ---------------------------
-8---------------7--------------- -5-------------3-----------


Verse

"I saw you there since then...."


Verse then figure 2 then

"Like I'm gone...."

--3---2- -2--2--- -3---2-- -0--0--
--3---3- -3--3--- -3---3-- -2--1--
--0---2- -2--0--- -0---4-- -2--2--
--0---0- -------- -0---4-- -2--2--
--2----- -3--2--- -2---2-- -0--0--
--3----- -------- -3------ -------

Figure 1 twice


Verse

"And then you walk...."

Figure 1 - 3 times then

twice
---3----2--- ----------
---3----3--- -2-----1--
---0----4--- -2-----2--
--------4--- -2-----2--
--------2--- -0-----0--
-3---------- -----------


Bridge

"Before you came you know I never cared....."

acoustic
-6---4--- -3---1--- --4---8--- -6---6--- -1---5--
-6---4--- -3---1--- --4---8--- -6---6--- -1---5--
-7---5--- -3---2--- --5---8--- -7---6--- -2---5--
-8---6--- -5---3--- --6--10--- -8---8--- -3---7--
-8---6--- -5---3--- --6--10--- -8---8--- -3---7--
-6---4--- -3---1--- --4---8--- -6---6--- -1---5--

-2---2--- --2------- --3---2--- --0---0---
-3---3--- --3------- --3---3--- --2---1---
-2---2--- --0------- --0---4--- --2---2---
-0------- ---------- --0---4--- --2---2---
-----3--- --2------- --2---2--- --0---0---
--------- (2/4 bar)- --3------- ----------

w/2 electric parts

tremolo picking
-10--8- -6--5- -8-11- -10--9- 13-12- 14-12- -10- 10- -9--8-
-11--9- -8--6- -4--8- -11-11- 10-13- 15-13- -12- 12- 10-10-
------- ------ ------ ------- ------ ------ ---- --- ------
------- ------ ------ ------- ------ ------ ---- --- ------
------- ------ ------ ------- ------ ------ ---- --- ------
------- ------ ------ ------- ------ ------ (2/4) -- ------
arpeggiate
-10--8- -6--5- -4--3- -1--1- -5--8- -5---5-- --5-- 3-7 -5-5-
-11--9- -8--6- -4--4- -3--2- -6--8- --3---3- ----- 3-7 -5-5-
-10--8- -7--5- -5--5- -3--3- -5--9- ---2---2 ---2- 4-7 -6-5-
------- ------ ------ ------ ------ 0------- ----- 5-9 -7-7-
------- ------ ------ ------ ------ ----3--- -2--- --- -----
------- ------ ------ ------ ------ -------- ----- --- -----


Outro

Figure 1 - 12 times

ends on
w/delay
--3~------
--3~------
--4~------
--5~------
--3~------
----------

Scott Taylor
wonderboymusic@yahoo.com
Florida State University
IM:tromba1B

________________________________________________________________________________

Almost there ...

Sign in to get your own page with links to favourite songs and more. You are just one click away...

Login with Facebook Login with Google