Log in

One click and you are in

Login with Facebook Login with Google

Why sign up and log in

Guitar Tabs Explorer
Dave Matthews tabs for Trouble

Guitar tabs with lyrics

"Trouble"

Dave Matthews
Some Devil

Tim improvises throughout with delay, volume pedal- all based
around minor and major pentatonics

INTRO

this part repeats throughout
-----------------
-----------------
--9---9---9---9--
--7---7---7---7--
-----------------
-----------------

electric riff
-------- -----9-----7----- -5------- -----9-----7----- -5-
---5--5- ---5-----5-----5- -----5-5- ---5-----5-----5- ---
-7--7--- -6-----6-----6--- ----6-6-- -7-----7-----7--- ---
-------- ----------------- --------- ----------------- ---
-------- ----------------- --------- ----------------- ---
-------- ----------------- --------- ----------------- ---


Verse

"Trouble....."


Figure 1  - play 3 times
this is a composite part
------------- ------ ------- -------
------------- ------ ------- -------
--9--9--9--9- ---9-- ---9--- ---9---
--7--7--7--7- ---7-- ---7--- ---7---
------------- ------ -5----- -------
-5----------- -7---- ------- -5-----

then

"Trouble, get behind me now..."

Figure 2
------------ ------- ------ -------
------------ ------- ------ -------
---9-----9-- ----9-- ------ ---9---
---7-----7-- ----7-- ------ ---7---
------------ --5---- ------ -------
-5----7----- ------- ------ --5----

then Figure 1 - once

Verse

"Cold, wet stone..."

Figure 1 - 3 times then Figure 2


Bridge

"Here I stand...."

------- ------ ----- --------
--2---- --0--- --0-- --3-----
--2---- --1--- --0-- --2-----
--4---- --2--- --2-- --0-----
--4---- --2--- ----- --------
--2---- --0--- --3-- --2-----

then Figure 2 twice

then
------ ------ ----- -------
-10--- --9--- --5-- --7----
------ ------ ----- -------
-11--- --9--- --6-- --7----
--9--- --7--- --4-- --5----
------ ------ ----- ------- 2 times then

------ ------ ----- --------
-10--- --9--- --0-- --3-----
------ ------ --0-- --2-----
-11--- --9--- --2-- --0-----
--9--- --7--- ----- --------
------ ------ --3-- --2-----

"I have fallen"

------- ------
--6---- --2---
------- --2---
--7---- --2---
--5---- --4---
------- ------


Chorus

"Pray your mercy give to me...."

Figure 2 - twice

then vamp on Figure 1 - twice

overdubs continue effects ad lib (delay, volume)


Verse

"Cold, wet stone....."

Figure 1 - 3 times
then Figure 2

then vamp on A chord diagramA5A5 until end

Scott Taylor
wonderboymusic@yahoo.com
IM: tromba1B
Florida State University

________________________________________________________________________________

Almost there ...

Sign in to get your own page with links to favourite songs and more. You are just one click away...

Login with Facebook Login with Google