Log in

One click and you are in

Login with Facebook Login with Google

Why sign up and log in

Guitar Tabs Explorer
Dave Matthews tabs for Stay or leave

Guitar tabs with lyrics

"Stay or Leave"

Dave Matthews
Some Devil

6/8 time
Intro

CAPO FRET 7

strumming not indicated
Figure 1
------------ ------------- ----------- -----------
---0-----0-- -----3----1-- ---1----1-- ---1----1--
---0-----0-- -----0----0-- ---0----0-- ---0----0--
---2-----0-- -----4----2-- ---0----0-- ---0----0--
-2---------- -3~5----3---- -2--------- -0---------
-0----3----- ------------- ------3---- ------2----

------------- -------------- ---------- -------------
-----0----0-- -----3-----1-- ----3--3-- ----3---3--3-
-----0----0-- -----0-----0-- ----0--0-- ----0---0--0-
-----2----0-- -----4-----2-- ----0--4-- ----0---4--0-
--2---------- -3~5----3----- --2------- --2----------
--0-----3---- -------------- ---------- -------------



Verse

"Maybe different....."

play Figure 1 - twice


Chorus

"Stay or leave, I want you not to go...."

Guitar 1
Figure 2 - play 3 times
--0---- --0---- --3----- -------
--1---- --1---- --0----- --3----
--2---- --0---- --0----- --2---- w/
--2---- --2---- --0----- --0----
--0---- --3---- --2----- -------
------- ------- --3----- --2----
Guitar 2 (no capo)
Figure - 3 times
arpeggiate
--7--- --10--- --10--- --9--
--8--- --12--- --10--- -10--
--9--- --12--- --11--- --9--
------ ------- ------- -----
------ ------- ------- -----
------ ------- ------- -----

then


Intro w/
Guitar 2 (no capo)
--2----5--- ---9---7--- --5---2--- ----0-----0-- ---0----0---
--3----7--- --10---8--- --7---3--- --5-----2---- -3--3-7---7-
--4----7--- ---9---7--- --7---2--- ------------- ------------
----------- ----------- ---------- --5-----2---- -4----7-----
----------- ----------- ---------- ------------- ------------
----------- ----------- ---------- ------------- ------------

-----0-------0---- -------10-10- -10----
--10---0--8----0-- --7-----7--8- -10----
------------------ ------------- -------
--11------9------- --7---------- -------
------------------ ------------- -------
------------------ ------------- -------


Verse

"Wake up naked...." play Figure 1 - 2 times


Chorus same as before


Bridge

Figure 3 - play twice
-------- -------- -------- -------
-----3-- -----3-- ----3--- ----3--
-----2-- -----2-- ----2--- ----2--
-----0-- -----0-- ----0--- ----0--
--4----- --3----- -------- -------
-------- -------- --3----- --2----
---------- -------- -------- -------
---3---3-- -----3-- ----3--- ----3--
---2---2-- -----2-- ----2--- ----2--
---0---0-- -----0-- ----0--- ----4--
-4-------- -------- -------- -------
-----0---- --3----- --2----- --5----

then
------- -------
----3-- ----3--
----2-- ----2--
----0-- ----0--
--4---- --3----
------- -------

then play first 5 bars of Intro with
Guitar 2 (no capo)
---------- -5-7~9----- ------5---- ---3-----0-- ---2----5----
----3--7-- --------8-- --7-----5-- -5---5-2---- -3--3--7--7--
--4------- -6-7~9----- ----------- ------------ -------------
-------7-- --------9-- --7---4---- -5-----2---- -4-----7-----
---------- ----------- ----------- ------------ -------------
---------- ----------- ----------- ------------ -------------

then
Guitar 1
-----10----
------8----
------0----
------0----
-----------
-10--10----

Interlude (4/4 time)

"Remember we used to dance...."
---0---0- ---0---0-- ------- --0---0-- -----------
---1---1- ---1---1-- --3---- --1---1-- --3-----3--
---0---0- ---2---2-- --2---- --2---0-- --2-----2--
---2---2- ---2---2-- --0---- --2---2-- --4-----0--
-3---3--- -0-------- ------- --0---3-- --5---4----
--------- -----3---- -2----- --------- -----------

repeat previous 2 bars

----------- ---------------
---3----3-- ---3----3---3--
---2----2-- ---2----2---2--
---0----0-- ---0----0---0--
-3--------- ------4--------
------3---- -2--------0----
----------- ------------
---3----3-- --3----3----
---2----2-- --2----2----
---0----0-- --4----0---- ----------- --5--4------
-3----2---- ------------

--(2/4 bar)- ------------------10---
----3------- ----0-----0--------8---
----2------- ----0-----0--------0---
----0------- ----2-----0--------0---
-3---------- --2--------------------
------------ --0-----3----~10--10---


"Remember we used to dance...."

---0---0- ---0---0-- ------- --0---0-- -----------
---1---1- ---1---1-- --3---- --1---1-- --3-----3--
---0---0- ---2---2-- --2---- --2---0-- --2-----2--
---2---2- ---2---2-- --0---- --2---2-- --4-----0--
-3---3--- -0-------- ------- --0---3-- --5---4----
--------- -----3---- -2----- --------- -----------

--0---0-- ------
--1---1-- --3---
--2---0-- --2---
--2---2-- --4---
--0---3-- --5---
--------- ------

Scott Taylor
wonderboymusic@yahoo.com
IM: tromba1b
Florida State University

________________________________________________________________________________

Almost there ...

Sign in to get your own page with links to favourite songs and more. You are just one click away...

Login with Facebook Login with Google