Log in

One click and you are in

Login with Facebook Login with Google

Why sign up and log in

Guitar Tabs Explorer
Dave Matthews tabs for So damn lucky

Guitar tabs with lyrics

"So Damn Lucky"

Dave Matthews
Some Devil
12/8 time (groove is half-time feel)


Intro


Figure 1
-------------------------------
---H---------------------------
--9-11-11-11--9--11--9--11--9--
--9-----9--9--9---9--9---9--9--  repeat
--9-11-11-11--9--11--9--11--9--
--0-----0--0--0---0--0---0--0--

-------------------------------
---H---------------------------
--9-11-11-11--9--11--9--11--9--
--9-11-11-11--9--11--9--11--9--  repeat
--0-----0--0--0---0--0---0--0--
-------------------------------

Figure is loosely doubled an octave higher


Verse

"Everything's different....."

Figure 1 - 5 times


Pre-Chorus

"Oh my God....."

------ ------- ----- ------ ----- ------- --0-- --0--
------ ------- ----- ------ --0-- -8--3-- --1-- --2--
--2--- -7---6- --4-- -4--2- --0-- ----0-- --0-- --2--
--0--- -0---0- --0-- -0--0- --2-- -5--4-- --2-- --2--
------ ------- ----- ------ --2-- -7--5-- --3-- --0--
--2--- -7---5- --3-- -3--2- --0-- ------- ----- -----

--0-- ------- ---- ----- --0-- ------- --0--- --0---
--0-- ------- ---- ----- --0-- -8--3-- --1--- --2---
--0-- -7---6- --4- ---2- --0-- ----0-- --0--- --2---
--2-- -0---0- ---- ---0- --2-- -5--4-- --2--- --2---
--2-- ------- --2- ----- --2-- -7--5-- --3--- --0---
--0-- -7---5- --3- ---2- --0-- ------- ------ ------


Chorus/Verse

"So Damn Lucky......"

Figure 1 - 5 times


Pre-Chorus

same as before then

------ ----------
--0--- ----------
--0--- ----------
--2--- ----------
--2--- ----------
--0--- ----------


Verse

"Now I'm thinking......"

Figure 1 - 3 times


Pre-Chorus

same as before


Outro is Verse Figure repeated ad lib

w/electric lick
----12-12-17--17---16--16--12-
-12---------12--12---12--12---
------------------------------
------------------------------
------------------------------
------------------------------

Scott Taylor
wonderboymusic@yahoo.com
IM: tromba1B
Florida State University

________________________________________________________________________________

Almost there ...

Sign in to get your own page with links to favourite songs and more. You are just one click away...

Login with Facebook Login with Google