Log in

One click and you are in

Login with Facebook Login with Google

Why sign up and log in

Guitar Tabs Explorer
Dave Matthews tabs for Save me

Guitar tabs with lyrics

"Save Me"

Dave Matthews
Some Devil
Intro(0:07)
2 electrics
----------5---------- --------------------------------
-6-6-6-6------------- ----------------P---------------
-7-7-7-7--------x-x-- -----------10-12-10--12-10------
-------------------x- -----3-5-----------12-----12-10-
--------------------x -5-5----------------------------
--------------------- --------------------------------
w/
--------------------- --------------------------------
--------------------- --------------------------------
---------4-4--------- -------4-x-x--------------------
---5-----5-5---3--5-- ---5---5-x-x--3--5--------------
-------5-----5------- -----5-------5------------------
-3---3--------------- -3------------------------------

  ------------------0-0- ---------x------------------
-6-6-6-6----------0-0- ---------x------------------
-7-7-7-7------0---0-0- ----------------------------
-----------3------0-0- -----3-5---------3--5--3--5-
------------------0-0- -5-5-----------5------------
------------------0-0- ----------------------------
w/
---------------------- ----------------------------
---------------------- ----------------------------
-4-4-4-4-------------- -4-4-4-4--------------------
-5-5-5-5-------------- -5-5-5-5-----3---5-----5--5-
-5-5-5-5-------------- -5-5-5-5---5----------------
-3-3-3-3-------------- -3-3-3-3--------------------

Verse

"Drivin' through the desert....."

acoustic - Dave's part (what he plays live)
Figure 1 - play 3 times
------------------ ------ ------------------
------------------ ------ ------1--- --------
--4--------------- ------ --2---0--- --4-----
--5-----3---5----- ------ --3---2--- --5-----
--5--------------- ------ --3---3--- --5-----
--3--------------- ------ --1------- --3-----

Tim's part
----------- ------------------ -------- ------------------
----------- ------------------ -arpegg- ------------------
----------- ------------------ -----5-- -----------0-0----
-----3-5--- -----3-5---------- -3---5-- -----3-5---3-2-0--
-5-5------- -5-5-------------- -3---3-- -5-5-------------3
----------- -----------8~--8~- -1------ ------------------


----~13~15~19~22-22----- -------~13~15~19~22----- -------
------(tap with pick)--- ------------------------ -------
------------------------ --------------------0-0- ----5--
-0-5-------------------- ---3-5------------------ -3--5--
------------------------ ------------------------ -3--3--
-------------------22-19 -3---------------------- -1-----

----------------- ------8-8------------ -----------------5--
---------~6-6-6-6 -6-6----------------- ~6-6-6-6-6~----6----
---------~7-7-7-7 -7-7----------------- ~7-7-7-7-7~----5-~10
----3-5---------- -----------------3-5- ------------5-7--~10
5-5-------------- ----------5--5--5---- --------------------
----------------- --------------------- --------------------

---------------------- ----------------------------
----10-10------5-5---- -~6-6-6-6-6~---------P------
10--10-10------5-5---- -~7-7-7-7-7~----10-12-10----
10----------5--------- -------------------------12-
---------------------- ----------------------------
---------------------- ----------------------------


Chorus

"Save me, save me......"

------- ----- -------- ------------ -(2/4 bar) ------
-----1- ----- -----1-- ------------ -1-------- --1---
-2---0- --4-- -2---0-- -4---2---0-- -2-------- --0---
-3---2- --5-- -3---2-- -5---0---2-- -2-------- --2---
-3---3- --5-- -3---3-- -5-------2-- -0-------- --3---
-1----- --3-- -1------ -3---2---0-- ---------- ------

w/Tim
  --------------8--8-- ----------------------------------
--10-10-----8------- ~6-6-6--5-5-----------------------
--10-10---9-------0- ~7-7-7--5-5-0-0-~4-P---~4--P------
10------10---------- ------------------5-3--5--5-3-----
-------------------- ------------------------------5-5-
-------------------- ----------------------------------

  ----1-------8--- ---3----2----0---- --5-------- --8----
---1-------8---- ------------------ --5-------- --8----
--2-------9----- -4----2----------- --5-------- --9----
-3------10------ -----------2------ --7-------- -10----
---------------- ------------------ -(2/4 bar)- -------
---------------- ------------------ ----------- -------

play first 2 bars of Intro then


Verse

"How 'bout you take a ride with me "
play Figure 1 once then


Chorus "Save me, save me...."
----------- ------------
------1---- ------------
--2---0---- --4--------- then play previous chorus
--3---2---- --5---------
--3---3---- --5---------
--1-------- --3---------

then play 2 bars of Intro


Bridge "I don't need you to...."

Figure 2 - 3 times - Dave's live acoustic part
----------- -------------
----------- -------------
--7----7--- --5---4------
--4----4--- --2---0------
----------- ------2------
--7----5--- --5---3------

w/ Tim's part from record
--7--- --10--- --10--- --7---
--7--- --10--- ---8--- --8---
--7--- --11--- ---9--- --7---
--9--- --12--- ---7--- --9---
------ ------- ------- ------
------ ------- ------- ------

Dave w/ first 3 Tim chords
----------- --(2/4 bar)-
----------- ------------
--7----7--- --5---------
--4----4--- --2---------
----------- ------------
--7----5--- --5---------


Outro

"Might try saving yourself...." repeat til end
------------ --------------
------------ --1-----------
--4----2---- --0-(3)-------
--5----3---- --2-----------
--5----3---- --3-----------
--3----1---- --------------

Scott Taylor
wonderboymusic@yahoo.com
IM: tromba1B
Florida State University

________________________________________________________________________________

Other versions of Save Me

Save meChords

Almost there ...

Sign in to get your own page with links to favourite songs and more. You are just one click away...

Login with Facebook Login with Google