Log in

One click and you are in

Login with Facebook Login with Google

Why sign up and log in

Guitar Tabs Explorer
Dave Matthews chords for Save me

Guitar chords

Title:   Save Me
Album:   Some Devil / MTV Special
Submitted and Tabbed by Ghost<^>


Here is the tab for the version of Save Me that Dave played on the MTV
Special.
Haven't heard the album version yet, so this might not be the same for
that version.

Chords

  A chord diagramG+G        A chord diagramFF      A chord diagramC majorC    A chord diagramG+G      A chord diagramD/F#D/F#   A chord diagramE minorEm    A chord diagramA minorAm
 (type1)	     (type2)
|----------------------------------------------|
|-3---------------1-------------------------1--|
|-4--------2------0------0------2-----------2--|
|-5--------3------2------0------0------2----2--|
|-5--------3------3------2------0------2----0--|
|-3--------1-------------3------2------0-------|


VERSE

A chord diagramG+G
Drivin thru the desert.......
A chord diagramFF                             A chord diagramC majorC
he'd been walking there for twenty days....

A chord diagramG+G
How bout a drink........

A chord diagramFF   -      A chord diagramC majorC     -  A chord diagramG+G
Save me, Save Me


A chord diagramG+G	 A chord diagramD/F#D/F#    A chord diagramE minorEm
Stranger if you please

A chord diagramA minorAm              A chord diagramC majorC	   A chord diagramG+G
or am i to far gone........home


BRIDGE
 Chords


  A chord diagramB minorBm       A chord diagramA augmentedA    A chord diagramA minorAm      A chord diagramG+G
|-------------------------------|
|-------------------------------|
|--7--------6-----5------4------|
|--0--------0-----0------0------|
|-------------------------------|
|--7--------5-----5------3------|

Then Back to

A chord diagramG+G - A chord diagramFF - A chord diagramC majorC

Other versions of Save Me

Save meTabs

Almost there ...

Sign in to get your own page with links to favourite songs and more. You are just one click away...

Login with Facebook Login with Google