Log in

One click and you are in

Login with Facebook Login with Google

Why sign up and log in

Guitar Tabs Explorer
Dave Matthews tabs for Oh

Guitar tabs

"Oh"

Dave Matthews
Some Devil

Intro

CAPO FRET 7
(LIVE, Dave plays an acoustic tuned up a 5th - restrung, obviously)

All acompaniment parts typically double an octave or lower

Figure 1
------------------ ----------------------
-----2------3----- -----0----H-P----0----
-----2------0----- -----0---0-2-0---0----
---2------4-----0- ---0-----------2---0--
-0-----~5-----5--- ----------------------
------------------ -3-----3--------------


Verse

"The world...."

play Figure 1 - 5 times then

Figure 2 - 4 times
--2--2---2--2-- --2--2----------
--3--3---3--3-- --3--3---2--2---
--2--2---4--4-- --2--2---2--2---
--0--0---4--4-- --0--0---2--2---
---------2--2-- ---------0--0---
--------------- ----------------


Chorus

"I love you oh so well....."

Figure 3 - play twice
--3---- ---0---------
--0---- ---0---------
--0---- ---0---------  then play Figure 2 - 3 times
--0---- ---2---------
--2---- ---2---------
--3---- ---0---------

play Figure 3 - twice


Intro

Verse - Figure 1 - 5 times
Figure 2 once


Chorus

Figure 3 twice


Intro figure once then

---------------- ----------------- ------------------
-----2------3--- -----3-----3----- -----3-----3------
-----2------0--- -----0-----0----- -----0-----0------
---2------4----- ---4-----4-----4- ---4-----4-----4--
-0-----~5-----5- -3-----3-----3--- -2-----2-----2----
---------------- ----------------- ------------------


----------------- --------
-----3-----3----- --------
-----0-----0----- --2-----
---4-----4-----4- --2-----
-0-----0-----0--- --5-----
----------------- --------

Scott Taylor
wonderboymusic@yahoo.com
IM: tromba1B
Florida State University

________________________________________________________________________________

Almost there ...

Sign in to get your own page with links to favourite songs and more. You are just one click away...

Login with Facebook Login with Google