Log in

One click and you are in

Login with Facebook Login with Google

Why sign up and log in

Guitar Tabs Explorer
Dave Matthews tabs for Grey blue eyes

Guitar tabs with lyrics

"Grey Blue Eyes"

Dave Matthews
Some Devil
Trey Anastasio plays two clean electric parts with amp tremolo


Intro (0:07)

"Oh ah oh ooooo......"

------ --0----
--3--- --1----  play these 2 bars - 3 times
--0--- --2----
--0--- --3----      (implied harmony)
------ --3----
--3--- --1----

then

------ ------
--3--- ------
--0--- ------
--0--- ------
------ ------
--3--- ------


Verse

"I faded from the light....."

Two parts - chord and Trey's lead line - 8 times
--------------------------------------- --2nd elec--
--3-/----H-P-P---P-----P--------------- plays harmonics
--0-/---7-9-7-0-4-0---2-0-----0-------- ----7-------
--0-/--9------------0-----0-4---4~5---- ------------
--------------------------------------- ------------
--3-/---------------------------------- ------------

"stone, stone has pulled me down...."

implied harmony
------ ---2---- ------ ----------
--0--- ---3---- --1--- ----------
--0--- ---2---- --0--- ----------
--2--- ---0---- --2--- ----------
--2--- -------- --3--- ----------
--0--- -------- ------ ----------

"Oooo......"

implied harmony
------ --0---- ----- ------ ------ ----- ------ -----
--0--- --1---- --0-- --1--- --0--- --1-- --0--- -----
--0--- --0-------0-- --0--- --0--- --0-- --0--- -----
--0--- --2---- --0-- --2--- --0--- --2-- --0--- -----
------ --0---- --2-- --3--- ------ --0-- ------ -----
--3--- ------- ----- ------ --3--- ----- --3--- -----


Verse
"Don't forget...."

------ ------ ------- --2--- ----- -------
--0--- ------ ---0--- --3--- --1-- -------
--0--- ------ ---0--- --2--- --0-- -------
--0--- ------ ---2--- --0--- --2-- -------
------ ------ ---2--- ------ --3-- -------
--3--- ------ ---0--- ------ ----- -------

"Oooo......"

------ --0---- ----- ------ ------ ----- ------ ------
--0--- --1---- --0-- --1--- --0--- --1-- --0--- --1---
--0--- --2-------0-- --0--- --0--- --2-- --0--- --0---
--0--- --2---- --0-- --0--- --0--- --2-- --0--- --2---
------ --0---- --2-- --3--- ------ --0-- --2--- --3---
--3--- ------- ----- ------ --3--- ----- ------ ------


Verse

--------------
---0----------
---0----------  repeat until end
---0----------
--------------
---3----------


Scott Taylor
wonderboymusic@yahoo.com
IM: tromba1b
Florida State University

________________________________________________________________________________

Almost there ...

Sign in to get your own page with links to favourite songs and more. You are just one click away...

Login with Facebook Login with Google