Log in

One click and you are in

Login with Facebook Login with Google

Why sign up and log in

Guitar Tabs Explorer
Dave Matthews tabs for Gravedigger

Guitar tabs with lyrics

"Gravedigger"

Dave Matthews
Some Devil

2 electrics add lead lines throughout based on minor pentatonic figures,
the parts aren't set in stone - plus it would be way too tedious to
notate each part
Intro

acoustic
-------H-P--0---------------
------0-1-0-1-----1--0-0----
---2--2-----------2--2-2----  repeat
---2--2--------2--2------2--
---0-----------0------------
----------------------------


Verse

"Cyrus Jones....."

acoustic - hammer-on ad lib

Figure 1 - play twice
------- ------ ------ --------
--1---- --0--- ------ --1-----
--2---- --2--- --2--- --2-----
--2---- --2--- --3--- --2-----
--0---- ------ --3--- --0-----
------- --3--- --1--- --------


Chorus

"Gravedigger, when you dig my grave..."

----- ----- ----- ----------- ------
--1-- --0-- --0-- --1----0--- --3---
--2-- --2-- --1-- --2----2--- --2---
--2-- --2-- --2-- --2----2--- --0---
--0-- ----- --2-- --0-------- ------
----- --3-- --0-- -------3--- --2---

then Intro

Verse

Chorus

Intro


Bridge

"Ring around the rosey..."

Figure 2 - play 3 times
--1---1--- ------3-----
--3---1--- -1----0--3--
--2---2--- -0----0--3--
--0---3--- -2----0--3--
------3--- -3----2--1--
------1--- ------3-----

            2/4 bar     4/4
--1---1-- ----------- --3-----
--3---1-- ---1------- --0-----
--2---2-- ---0------- --0-----
--0---3-- ---2------- --0-----
------3-- ---3------- --2-----
------1-- ----------- --3-----


Chorus

Intro

Verse

Chorus - 3 repeats

then


Outro
6/8 time

"Gravedigger."

play 3 times
--------- -----------
--1---0-- --1---0----
--2---2-- --2---1----
--2---2-- --3---2----
--0------ --3---2----
------3-- --1---0----

then
--------- ---------
--1---0-- --1------
--2---2-- --2------
--2---2-- --3------
--0------ --3------
------3-- --1------


Scott Taylor
wonderboymusic@yahoo.com
IM: tromba1B
Florida State University

________________________________________________________________________________

Other versions of Gravedigger

GravediggerChords

Almost there ...

Sign in to get your own page with links to favourite songs and more. You are just one click away...

Login with Facebook Login with Google