Log in

One click and you are in

Login with Facebook Login with Google

Why sign up and log in

Guitar Tabs Explorer
Dave Matthews tabs for Crash into me luther college

Crash Into Me Luther College tab by Dave Matthews

Dave Matthews tabs for Crash into me luther college

Guitar tabs with lyrics

Dave Matthews-Crash Into Me

From The Album ^ÓLive At Luther College

Tabbed By Jordan T Taylor

1/20/04


Verse

^ÓYou^Òve Got You Ball You^Òve Got Your Chain...^Ô

e--------------------------------------------------------------------
B--------5-5-5-----55-----5-5-5-5-5-----5-5-5----5----5-5-5------5---
G--------4-4-4-----44-----4-4-4-4-4-----4-4-4----4----4-4-4------4---
D--------2-2-2-----22-----2-2-2-2-2-----2-2-2----2----2-2-2------2---
A--4-------------0-----------2-------0-------------0-------2-----0---
E-----------------------------------------4--------------------------


Chorus

e---------------------------------------------2--x
b---------------------------------------------2--x
g-------------------------------------1-------2--x
d-------------------------------------2-------4--x
a--------------------0-------2--------2-------4--x
E--------------4------------------------------2^×-x

^ÓWhen You Come Crash..............Into Me....Baby...^Ô

Play Verse Once Then Play This:


^ÓIn A chord diagramA augmentedA Boy^Òs Dream^Å^Ô

e--0-0-2-0-0-0-2-0-0-0-2-0-0-0-2--
B--5-5-5-5-5-5-5-5-5-5-5-5-5-5-5--
G--4-4-4-4-4-4-4-4-4-4-4-4-4-4-4--
D---------------------------------
A---------------------------------
E---------------------------------



For The Part Where He Sings ^ÓI Watch You There By The Window^Å^Ô

Just Play The Main Riff.








Note


I Made This Tab Because Some Others I Saw Were Wrong. Also I Have Posted
The Correct Chorus. I Would Like To Restate This Is The Live At Luther
College Version. Also This Is Just Dave^Òs Part. None Of It Is Lead From
Tim Reynolds. He Plays Some Bass Notes On The ^ÓBoys Dream^Ô Part That I
Have Not Included But They Are The Same Ones You Play In The Verse So
Figure Them Out Yourself-thepunkrawjerk ;P

Almost there ...

Sign in to get your own page with links to favourite songs and more. You are just one click away...

Login with Facebook Login with Google