Log in

One click and you are in

Login with Facebook Login with Google

Why sign up and log in

Guitar Tabs Explorer
Dave Matthews tabs for Baby

Guitar tabs with lyrics

"Baby"

Dave Matthews
Some Devil
"Baby, it's alright....."

----------- ----------- --------- -------- --------- -------
----------- ----------- --------- -------- --------- -------
--7-6------ -5-4------- --------- -------- --------- -------
--7-7--7-6- -5-5--5-4-- -7-7-7-7- -7--7-7- -7-7-7-7- -7--7--
-------7-7- ------5-5-- -5-5-7-5- -7--7-7- -5-5-7-5- -7--7--
----------- ----------- -5-5-5-5- -5--5-5- -5-5-5-5- -5--5--

Verse
"Nothing is here to stay...."

------------- ---- ------------- ------ ---------------- ---
------------- --3- ------------- -3---- ---------------- -3-
-----P------- --2- -----P------- -2--2- ----P----------- -2-
-4--2-0----0- --0- -4--2-0----0- -0--2- -4-2-0---0-2--0- -0-
--------4---- ---- --------4---- ----0- -------4-------- ---
-3----------- ---- -3----------- ------ -3-------------- ---

              3/4 time                 4/4
------------ ------ ----- ----- ---P-- --------------- -3-2-
------------ --3-3- -3-3- -3-3- --3-2- --------------- -3-3-
------------ --2-2- -2-2- -2-2- --2--- ----P---------- -2-2-
-4-2-0---0-- 0----- ----- ----- --2--- -4-2-0---0-2--0 -0-0-
-------4---- ------ 4---- 2---- -0---- -------4------- -----
-3---------- ------ ----- ----- ------ -3------------- -----

play whole form again then

Bridge

"Some might tell you..."

Figure - play twice
----- ------ ----- -----
---3-- --3-- --3-- --3--
---2-- --2-- --2-- --2--
------ ----- --0-- -----
--2--- --4-- ----- -----
------ ----- ----- --3--

------------------ ---3---2---
------------------ ---3---3---
-----P------------ ---2---2---
--4-2-0---0-2--0-- ---0---0---
--------4--------- -----------
--3--------------- -----------

"Baby, it's alright..."

(play these 2 bars twice)----------- --------
----------- ----------- ------------ --------
--7-6------ -5-4------- ------------ --------
--7-7--7-6- -5-5--5-4-- -7--7--7--7- -7------
-------7-7- ------5-5-- -5--5--7--5- -7------
----------- ----------- -5--5--5--5- -5------

------------------ --3--2--
------------------ --3--3--
-----P------------ --2--2--
--4-2-0---0-2--0-- --0--0--
--------4--------- --------
--3--------------- --------

Scott Taylor
wonderboymusic@yahoo.com
IM: tromba1b
Florida State University

________________________________________________________________________________

Other versions of Baby

Baby blueTabs

Almost there ...

Sign in to get your own page with links to favourite songs and more. You are just one click away...

Login with Facebook Login with Google