Log in

One click and you are in

Login with Facebook Login with Google

Why sign up and log in

Guitar Tabs Explorer
Matthew Good Band bass tabs for Apparitions

Bass tabs with lyrics

[VERSE]
 E
 Said "Hello"   Remain   Close to me   Hello, goodbye Suicide Mystery

 E
G:--------|--------|--------|--------|--------|--------|--------|--------|--------|
D:--------|--------|--------|--------|--------|--------|--------|--------|--------|
A:--------|--------|--------|--------|--------|--------|--------|--------|--------|
E:--------|--------|--------|--------|--------|--------|--------|--------|--------|

 G#m
 The rat  In your brain    Turns a wheel
 E
 Connected to your guts and all your faults are in me

 And all your faults are in ...

 E
G:--------|--------|--------|--------|--------|--------|--------|--------|--------|
D:--------|--------|--------|--------|--------|--------|--------|2-------|2-------|
A:2-------|--------|--------|--------|--------|--------|4-------|--------|--------|
E:--------|--------|0-------|--------|4-------|--------|--------|--------|--------|


[VERSE]
  G#m
... me     What would you say    If we lived on TV
     E
 Besides all the things they tell you to    And all the things they tell you to
   E
 And all the things they tell you to      And all the things they tell you to

                            _(x2)____________
 E
G:--------|--------|--------|--------|--------|--------|--------|--------|--------|
D:--------|--------|--------|--------|--------|--------|--------|2--2-2--|2--2-2--|
A:2--2-2--|2--2-2--|--------|--------|--------|--------|4--4-4--|--------|--------|
E:--------|--------|0--0-0--|0--0-0--|4--4-4--|4--4-4--|--------|--------|--------|

[CHORUS]
    F#
 We're stuck   inside our own machine
    E
 Apparitions   Apparitions

 E
G:--------|--------|--------|--------|--------|--------|--------|--------|
D:--------|--------|--------|--------|--------|--------|--------|--------|
A:2--2-2--|2--2-2--|--------|--------|0--0-0--|0--0-0--|--------|--------|
E:--------|--------|2--2-2--|2--2-2--|--------|--------|0--0-0--|0--0-0--|

    G
 Apparitions

 G
G:--------|--------|--------|--------|
D:--------|--------|--------|--------|
A:---2----|--------|---2----|--------|
E:4-------|0--0-0--|4-------|0--3----|


[VERSE]
 G#m
 Say "hello"   Well is it strange    Where you are
      E
 Where you used to be  kind of free  Are they laughing at you  laughing at you

 E
G:--------|--------|--------|--------|--------|--------|--------|--------|--------|
D:--------|--------|--------|--------|--------|--------|--------|2--2-2--|2--2-2--|
A:2--2-2--|2--2-2--|--------|--------|--------|--------|4--4-4--|--------|--------|
E:--------|--------|0--0-0--|0--0-0--|4--4-4--|4--4-4--|--------|--------|--------|

 G#m
 The rat  In your brain  Rules the world
      E
 From the comfort of your living room   Tell me are we leaving soon
   E
 The comfort of your living room   Tell me are we leaving soon

                            _(x2)____________
 E
G:--------|--------|--------|--------|--------|--------|--------|--------|--------|
D:--------|--------|--------|--------|--------|--------|--------|2--2-2--|2--2-2--|
A:2--2-2--|2--2-2--|--------|--------|--------|--------|4--4-4--|--------|--------|
E:--------|--------|0--0-0--|0--0-0--|4--4-4--|4--4-4--|--------|--------|--------|


[CHORUS]
    F#
 We're stuck   inside our own machine
    E
 Apparitions   Apparitions

 E
G:--------|--------|--------|--------|--------|--------|--------|--------|
D:--------|--------|--------|--------|--------|--------|--------|--------|
A:2--2-2--|2--2-2--|--------|--------|0--0-0--|0--0-0--|--------|--------|
E:--------|--------|2--2-2--|2--2-2--|--------|--------|0--0-0--|0--0-0--|

    G
 Apparitions

 G
G:--------|--------|--------|--------|
D:--------|--------|--------|--------|
A:---2----|--------|---2----|--------|
E:4-------|0--0-0--|4-------|0--3----|


[INSTRUMENTAL]
 E
G:--------|--------|--------|--------|--------|--------|--------|--------|
D:---1----|--------|---1----|--------|---1----|--------|---1----|---2----|
A:--------|2--2-2--|--------|2--2-2--|--------|2--2-2--|--------|2-------|
E:2-------|--------|2-------|--------|2-------|--------|2-------|--------|


[CHORUS]
    F#
 We're stuck   inside our own machine
    E
 Apparitions   Apparitions

 E
G:--------|--------|--------|--------|--------|--------|--------|--------|
D:--------|--------|--------|--------|--------|--------|--------|--------|
A:2--2-2--|2--2-2--|--------|--------|0--0-0--|0--0-0--|--------|--------|
E:--------|--------|2--2-2--|2--2-2--|--------|--------|0-------|--------|

[CODA]
    E
 Apparitions            Na na na  na

 E
G:--------|--------|--------|--------|--------|
D:--------|--------|--------|--------|--------|
A:--------|--------|--------|--------|--------|
E:--------|--------|--------|--------|--------|


Tabbed by Michael Oxner

Almost there ...

Sign in to get your own page with links to favourite songs and more. You are just one click away...

Login with Facebook Login with Google