Log in

One click and you are in

Login with Facebook Login with Google

Why sign up and log in

Guitar Tabs Explorer
Matt Maltese bass tabs for As the world caves in

As The World Caves In bass tab - Matt Maltese

Matt Maltese bass tabs for As the world caves in

Bass tabs

  • Difficulty: Intermediate
Tuning: Standard (E A D G)

🎸 Verse 1: (My feet are...)

G|---------------------------------------------------------------------------|
D|---------------------------------------------------------------------------|
A|---6---6-8h10---6---8-6----------------------------------------------------|
E|-6---6--------6---6--------------------------------------------------------|
🎸 Pre-Chorus: (And here it is...)

G|---------------------------------------------------------------------------|
D|---------------------------------------------------------------------------|
A|-3-5-----------------------------------------------------------------------|
E|---------------------------------------------------------------------------|

(And as the Earth...)

G|---------------------------------------------------------------------------|
D|-5-4-3-2-------------------------------------------------------------------|
A|---------------------------------------------------------------------------|
E|---------------------------------------------------------------------------|


🎸 Chorus: (You, that I...)

G|--------------------------------8-10-11------------------------------------|
D|---------------------------------------------------------------------------|
A|-6--6-6----6---6-6--5--------5---------6--6-6---6---6-6--5--------3-4-5--6-|
E|---------6---6--------6--6-6----------------------6--------6--6-6----------|


🎸 Verse 2: (You put your...)

G|---------------------------------------------------------------------------|
D|-----------------8h10------------------------------------------------------|
A|---6---6--6-8h10--------6--6-6-8--------6h8-6--6-6-5-----------------------|
E|-6---6----------------6----------6--6-6------------------------------------|

🎸 Pre-Chorus: (And here it is...)

G|---------------------------------------------------------------------------|
D|---------------------------------------------------------------------------|
A|-3-5-----------------------------------------------------------------------|
E|---------------------------------------------------------------------------|

(And as the Earth...)

G|---------------------------------------------------------------------------|
D|-5-4-3-2-------------------------------------------------------------------|
A|---------------------------------------------------------------------------|
E|---------------------------------------------------------------------------|


🎸 Chorus: (You, that I...)

G|---------------------------------------------------------------------------|
D|---------------------------------------------------------------------------|
A|-6---6-6----6---6-6--5--1---1-1-----5--0-5-5--0-6----6-6--6----6-6--5------|
E|---6------6---6-----------1------1-----------------6---------6-------------|

G|---------------------------------------------------------------------------|
D|---------------------------------------------------------------------------|
A|-1---1-1---5-5-5-5-5-5-5-5--6---6-6---6---6-6--5-1---1-1---5-5-5-5-5-5-5-5-|
E|---1-----1--------------------6-----6---6----------1-----1-----------------|

G|---------------------------------------------------------------------------|
D|---------------------------------------------------------------------------|
A|-6---6-6---6---6-6-5--1---1-1-5-5-5-5-5-5-5-5------------------------------|
E|---6-----6---6----------1--------------------------------------------------|


🎸 Outro:

G|---------------------------------------------------------------------------|
D|---------------------------------------------------------------------------|
A|----------6-8--------------------------------------------------------------|
E|-3-2-1-0-------------------------------------------------------------------|



************************************

| h Hammer-on

************************************

Almost there ...

Sign in to get your own page with links to favourite songs and more. You are just one click away...

Login with Facebook Login with Google