Log in

One click and you are in

Login with Facebook Login with Google

Why sign up and log in

Guitar Tabs Explorer
Matchbox 20 bass tabs for Kody

Bass tabs

cc: CTRPGPAT@aol.com

Bass Tab : Kody by Matchbox 20
Kody Bass Line
- Matchbox 20 -

This is a Great Song from Matchbox 20.

------------------------------------------------------
------------------------------------------------------
-----------------7---------------9---------------5----
-----5------------------------------------------------

Play this 2 times

Then

-------------------
-------------------
----5--------9-----
-------------------

This is just what it looks like. Hit the 5 once then the 9.
Keep doinging this till the Chorus starts.

Right before the Chorus play

-------------------------
-------------------------
--7----9-----7----9------
-------------------------

Then, the Chorus

------------------------------------------------------------------------
------------------------------------------------------------------------
---------7----9----5------------------7-----------------5--4------------
---5-------------------5---------------------7-----------------5----2---

Then it is back to

------------
------------
---5-----9--
------------

Then when it is time to play the chorus for the 3rd time,
it changes to this :

----------------------------------------------------------------------
----------------------------------------------------------------------
--------7----9----5-------------7---------------7--9--5------7-----5--
---5---------------------5------------7-----5-------------5-----7-----


By : P. Cummings
faq_man@hotmail.com

Almost there ...

Sign in to get your own page with links to favourite songs and more. You are just one click away...

Login with Facebook Login with Google