Log in

One click and you are in

Login with Facebook Login with Google

Why sign up and log in

Guitar Tabs Explorer
Matchbox 20 tabs for Hang solo

Guitar tabs

This is my first attempt to tab something.
Hope it's ok!
Helen

"Hang", Matchbox 20
>From the Album "Yourself or Someone Like You"
This is the solo I figured out for the song "Hang".
It's not completely right, but this is the way I play it,
and it doesn't sound bad.  Listen to the CD for rythyms
and stuff.

[-------3--------3-----------------]
[-1--3-----0--3--------------------]
[-------------------20-------------]
[------------------*-----5\4/5~~---]
[----------------------------------]
[----------------------------------]
		   *There's something missing around here
		   but it sounds ok.

[------3--------3------03--3-----5^7-----]
[-1--3----0--3-------3---3--1------------]
[----------------------------------------]
[-----------------------*----------------]
[----------------------------------------]
[----------------------------------------]
			*listen to CD for this part
[------3---7/8\7---3~~-------3-----3-----]
[-1--3-----------------------------------]
[----------------------------------------]
[----------------------------2-----0-----]
[----------------------------------------]
[-------------------------------*--------]
				*this part may have something different
				but then just go on to a A chord diagramG+G chord, then to
				the next verse: "The trouble understand"

EMail me for suggestions or comments or corrections
Helen at:
helenk@netvigator.com

Other versions of Hang Solo

HangChords

Almost there ...

Sign in to get your own page with links to favourite songs and more. You are just one click away...

Login with Facebook Login with Google