GuitarTabsExplorer icon
GuitarTabsExplorer icon

Log in

Songbook

  • Log in to add and see bookmarks

Last visited songs

    No songs visited yet...

3 Am by Matchbox Twenty

Bass tabs

3 Am.btab
Matchbox
TablEdited by Jan Bjorklund for Chris

Basstab by Jan Bjorklund, Finland;
[email protected]
You are welcome to request for basstabs or standard notation!
Bienvenidos a pedirme transcripciones para el bajo!


Tuning : B E A D G 	Time Signature: 4/4

 tempo 108    |    |    |    |    |    |
|--------------------13----------|--------------------------------|
|------------------------13------|--------------------------------|
|--------------------------------|--------------------------------|
|--------------------------------|------------9-------9-----------|
|----------------------------11--|9-------9---------------6---8---|

 |    |    |    |    |    |    |    |
|--------------------------------|--------------------------------|
|--------------------------------|--------------------------------|
|--------------------------------|--------------------------------|
|------------9-------9-----------|------------9-------9-----------|
|9-------9---------------6---8---|9-------9---------------6---8---|

 |    |    |    |    |    |    |    |
|--------------------------------|--------------------------------|
|--------------------------------|--------------------------------|
|------------------------------8-|--------------------------------|
|------------9-------9-----8-11--|11------------------------------|
|9-----9-9---------------9-------|----------------------------9h10|

 |    |    |    |    |    |    |    |
|--------------------------------|--------------------------------|
|--------------------------------|--------------------------------|
|--------------------------------|--------------------------------|
|9-------------------------------|------------9-------9-----------|
|--------------------------------|9-----9-9---------------6---8---|

 |    |    |    |    |    |    |    |
|--------------------------------|--------------------------------|
|--------------------------------|--------------------------------|
|------------------------------8-|--------------------------------|
|------------9-----9-9-----8-11--|11------------------------------|
|9-----9-9---------------9-------|----------------------------9h10|

 |    |    |    |    |    |    |    |
|--------------------------------|--------------------------------|
|--------------------------------|--------------------------------|
|--------------------------------|--------------------------------|
|9-------------------------------|------------9-------9-----------|
|--------------------------------|9-----9-9---------------6---8---|

 |    |    |    |    |    |    |    |
|--------------------------------|--------------------------------|
|--------------------------------|--------------------------------|
|------------------------------8-|--------------------------------|
|------------9-------9-----8-11--|11------------------------------|
|9-----9-9---------------9-------|----------------------------9h10|

 |    |    |    |    |    |    |    |
|--------------------------------|--------------------------------|
|--------------------------------|--------------------------------|
|--------------------------------|--------------------------------|
|9-------------------------------|------------9-------------------|
|--------------------------------|9-----9-9---------------6---8---|

 |    |    |    |    |    |    |    |
|--------------------------------|--------------------------------|
|--------------------------------|--------8-----------11--8-------|
|------------------------------8-|--------------------------------|
|------------9-------9-----8-11--|11----------11--------------11--|
|9-----9-9---------------9-------|--------------------------------|

 |    |    |    |    |    |    |    |
|--------------------------------|------------8-------------------|
|8-----------11------------------|8-------8-----------8-----------|
|--------11----------11----------|----6-------------------6-------|
|----9-------------------9-------|----------------------------6---|
|--------------------------------|--------------------------------|

 |    |    |    |    |    |    |    |
|--------------------------------|--------------------------------|
|--------------------------------|--------------------------------|
|--------------------------------|11--11--11--11------------------|
|----9---9---9---9---9---8-------|----------------11--11--11--9---|
|----------------------------11--|--------------------------------|

 |    |    |    |    |    |    |    |
|--------------------------------|--------------------------------|
|--------------------------------|--------------------------------|
|------------------------8-------|11--11------11------------------|
|----9---8---9---11--11----------|----------------11--11--11--9---|
|----------------------------8---|--------9-----------------------|

 |    |    |    |    |    |    |    |
|--------------------------------|--------------------------------|
|--------------------------------|--------------------------------|
|----------------6---6-----------|--------11----------------------|
|----9---8---9-------------------|----------------11--11--11--9---|
|------------------------6---9---|9---9-------9-------------------|

 |    |    |    |    |    |    |    |
|--------------------------------|--------------------------------|
|--------------------------------|--------------------------------|
|--------------------------------|8---8-------8-------------------|
|----9---8---9---11--11--9---11--|--------8-------11----------9---|
|--------------------------------|--------------------9---9-------|

 |    |    |    |    |    |    |    |
|--------------------------------|--------------------------------|
|--------------------------------|--------------------------------|
|--------------------------------|--------------------------------|
|--------------------------------|------------9-------------------|
|--------------------------------|9-----9-9---------------6---8---|

 |    |    |    |    |    |    |    |
|--------------------------------|--------------------------------|
|--------------------------------|---  and so on ........ ------|
|--------------------------------|--------------------------------|
|------------9-------------------|------------9-------------------|
|9-----9-9---------------6---8---|9-----9-9---------------6---8---|

http://www.geocities.com/jani_bjorklund/janis.html 1058405404377

[ Privacy | About us ]

Welcome to the guitar community

Why join and log in?
- Get songbook with favourite songs
- Get custom made front page
- Submit chords and tabs
- Submit guitar-cover videos
- Get a lot of thumbs up for your work

Songbook

Last visited songs

Site
Home
Search
Community
Submit chords
Submit video

Video

No video for this page. Check out how you can submit guitar-cover videos here

Search tabs and chords

Browse by artist

A B C D E F G H I J K L M N O P Q R S T U V W X Y Z #


Menu

Search

Video

Bookmark

Login