Log in

One click and you are in

Login with Facebook Login with Google

Why sign up and log in

Guitar Tabs Explorer
Mastodon tabs for Wolf is loose

Guitar tabs

Band:Mastodon
Album:Blood Mountain


Intro:Pick Slide
Verse:
|-------------------------------------------|
|-----3-----------------3-------------------|
|--2--3--5-5-5-5-----2--3--5-5-5-5----------|
|--2--1--5-5-5-5-----2--1--5-5-5-5----------|
|--0-----3-3-3-3-----0-----3-3-3-3----------|


|-------------------------------------------|
|-------------------------------------------|
|----5----------------5---------------------|
|-2--5--7-7-7-5----2--5--7-7-7-7------------|
|-2--3--7-7-7-7----2--3--7-7-7-7------------|
|-0-----5-5-5-5----0-----5-5-5-5------------|

^2x


Chorus:
|--------------------------------------|
|--------------------------------------|
|-11-12--11-----11-12--11--------------|
|-x--x---x------x--x---x---------------|
|-9--10--9------9--10--9---------------|
|--------------------------------------|     2x

|--------------------------------------|
|--------------------------------------|
|-10-9--12------10-9--12---------------|
|-x--x--x-------x--x--x----------------|
|-8--7--10------8--7--10---------------|
|--------------------------------------|

^^Play the Whole thing Twice Then
Play the rest

|------------------------------------------|
|------------------------------------------|
|-17-15-13----15-13-11---13-11-12-12-12-12-|    4x
|-x--x--x-----x--x--x----x--x--x--x--x--x--|
|-15-13-11----13-11-9----11-9--10-10-10-10-|
|------------------------------------------|


|--------------------------------------|
|--------------------------------------|
|--------------------------------------|
|-2-0-22-0-22-0------------------------|
|---------------11-0-------------------|
|--------------------3-----------------|


|--------------------------------------|
|--------------------------------------|
|--------------------------------------|
|-2-0-22-0-22-0------------------------|
|---------------11-0-------------------|
|--------------------3-----------------|


|-------------------------------------------|
|-------------------------------------------|
|-------------------------------------------|
|-2-0-3333---2-0-5555---2-0-5555--2-0-77777-|
|-------------------------------------------|
|-------------------------------------------|


|--------------------------------------|
|--------------------------------------|
|--------------------------------------|
|----------------------7-7-7-7---------|
|----7-------7-------7-7-7-7-7---------|
|--0---00000---00000---5-5-5-5---------|


|--------------------------------------|
|--------------------------------------|
|--------------------------------------|   2x
|-2-0-22-0-22-0------------------------|
|---------------11-0-------------------|
|--------------------3-----------------|


|--------------------------------------------------|
|--------------------------------------------------|
|----------------------------------------7777-9999-|
|-2-0-3333--2-0-5555--2-0-7777--2-0-9999-----------|
|--------------------------------------------------|
|--------------------------------------------------|


Solo:
|--------------------------------------|
|--------------------------------------|
|--9--7--------------------------------|
|------10-9-7--------------------------|
|-------------10-9-7-------------------|
|--------------------10-9-7-5-3-1------|
                                                         4x

|----------------------------------------|
|-9--7-----------------------------------|
|------10-9-7----------------------------|
|-------------10-9-7---------------------|
|--------------------10-9-7--------------|
|---------------------------10-9-7-------|


|---------------------------------------------------|
|---------------------------------------------------|
|---------------------------------------------------|
|-5-7---7-7-7-7-5-7--7-7-7-7-5-7---10-10-10-10-9-10-|
|-5-7---7-7-7-7-5-7--7-7-7-7-5-7---10-10-10-10-9-10-|
|-3-5---5-5-5-5-3-5--5-5-5-5-3-5---8--8--8--8--7-8--|

|-------------------------------------------------------|
|-------------------------------------------------------|
|-------------------------------------------------------|
|-10-10-10-10-9-10---12-12-12-12-10-12---12-12-12-12-10-|
|-10-10-10-10-9-10---12-12-12-12-10-12---12-12-12-12-10-|
|-8--8--8--8--7-8----10-10-10-10-8--10---10-10-10-10-8--|


|----------------------------------------|
|----------------------------------------|
|----------------------------------------|
|-10-10-10-10-9-10---10-10-10-10-9-10----|
|-10-10-10-10-9-10---10-10-10-10-9-10----|
|-8--8--8--8--7-8----8--8--8--8--7-8-----|

|----------------------------------------------|
|----------------------------------------------|
|----------------------------------------------|
|-7-7-7-7-5-7---7-7-7-7-5-7---10-10-10-10-9-10-|
|-7-7-7-7-5-7---7-7-7-7-5-7---10-10-10-10-9-10-|
|-5-5-5-5-3-5---5-5-5-5-3-5---8--8--8--8--7-8--|


|--------------------------------------|
|--------------------------------------|
|--------------------------------------|
|-10-10-10-10-9-10---------------------|
|-10-10-10-10-9-10---------------------|
|-8--8--8--8--7-8----------------------|


|-------------------------------------------------------|
|-------------------------------------------------------|
|-9-7-----------------7-5-------------4-2---------------|
|-----10-9-7--------------8-7-5-----------5-4-2---------|
|------------10-9---------------8-7-------------5-4-5-7-|
|-------------------------------------------------------|


|-------------------------------------------|
|-----3-----------------3-------------------|
|--2--3--5-5-5-5-----2--3--5-5-5-5----------|
|--2--1--5-5-5-5-----2--1--5-5-5-5----------|
|--0-----3-3-3-3-----0-----3-3-3-3----------|


|-------------------------------------------|
|-------------------------------------------|
|----5----------------5---------------------|
|-2--5--7-7-7-5----2--5--7-7-7-7------------|
|-2--3--7-7-7-7----2--3--7-7-7-7------------|
|-0-----5-5-5-5----0-----5-5-5-5------------|

|----------------------------------------------------------|
|----------------------------------------------------------|
|----------------------------------------------------------|
|-2-0-22-0-22-0-333---2-0-22-0-22-0-33--2-0-555-2-0-555----|
|----------------------------------------------------------|
|----------------------------------------------------------|

|--------------------------------------|
|--------------------------------------|
|--------------------------------------|
|-2-0-777-2-0-777----------------------|
|--------------------------------------|
|--------------------------------------|

|--------------------------------------|
|--------------------------------------|
|--------------------------------------|
|-3-2-1-------------3-2-1--------------------|
|-------3-2-1-------------3-2-1--------------|

Almost there ...

Sign in to get your own page with links to favourite songs and more. You are just one click away...

Login with Facebook Login with Google