Log in

One click and you are in

Login with Facebook Login with Google

Why sign up and log in

Guitar Tabs Explorer
Mastodon bass tabs for Wolf is loose

Bass tabs

----------------------------------------------------------------------------
		    The Wolf Is Loose - Mastodon
----------------------------------------------------------------------------

Tabbed By : Christ
e-mail: hailtofire88@yahoo.com

The notes are near perfect,if not perfect. The rhythm may be wrong in some parts but if
listen to the song you'll get it so that doesn't matter
Tuning:DGCFAD


Riff 1
F|-------------------------------------------------------------------------|
C|---------------------5--------5--------------------------5--------5------|
G|---7--------7----------6-66-----6-66---7--------7----------6-66-----6-66-|
D|-0---8-88-0---8-88-0--------0--------0---8-88-0---8-88-0--------0--------|


Riff 2
F|-------------------------------------------------------------------------|
C|-------------------------------------------------------------------------|
G|-------------------------------------------------------------------------|
D|-232--232--203--203--232--232--205-55555555555---------------------------|


Riff 1

Riff 2


Riff 3
F|-------------------------------------------------------------------------|
C|-------------------------------------------------------------------------|
G|-7---5------------7---5------------7---5------------7---5----------------|
D|---87--75-757-88----87--75-757-88----87--75-757-88----87--57-757-88------|

Riff 4              Fill 1                 2x
F|--------------------------------|----------------------------------------|
C|-20-220-220------20-220-220-----|20\333-20\555-20\555-20\777-------------|
G|------------110-------------110-|----------------------------------------|
D|---------------3---------------3|----------------------------------------|


Riff 5 2x
F|-------------------------------------------------------------------------|
C|-------------------------------------------------------------------------|
G|---7-------7-------7-----8-8-8-8---7-------7-------7-----8-8-8-8---------|
D|-0---000-0---000-0---000---------0---000-0---000-0---000-----------------|


Riff 4

Fill 2
F|-----------------------------7-9-|
C|-20\333-20\555-20\777-20\999-----|
G|---------------------------------|
D|---------------------------------|


Riff 6
F|------------------2------------------------2-----------------------------|
C|-----532-----------532-232----532-----------532-232----------------------|
G|--------532-----------5----------532-----------5-------------------------|
D|-0---------5301-----------0---------5301---------------------------------|


Riff 6 cont'd
F|-------------------2--------9-7-542--------------------------------------|
C|-----532------------532-232--------532-----------------------------------|
G|--------532------------5--------------532--------------------------------|
D|-0----------5301-------------------------5301-3--------------------------|


Riff 7
F|-------------------------------------------------------------------------|
C|-------------------------------------------------------------------------|
G|-------------------------------5-77757--77757-5--------------------------|
D|-55535-0-55535-7-88878-0-88878---------0--------88878-0-8887887----------|

Repeat first half of Riff 7

Fill 3
F|--------------------------------|
C|-3-2--------2-------------------|
G|----532-------532-----5-32------|
D|-------54--------530------5301-3|


Riff 1


Riff 8
F|-------------------------------------------------------------------------|
C|-------------------------------------------------------------------------|
G|-7-57-575\888-7-57-575\888-75\888-75\888-75\10-10-10-75\-10-10-10--------|
D|--7--7---------7--7------------------------------------------------------|


Outro Riff
F|------------------|
C|-20------320------|
G|---320------320---|

Almost there ...

Sign in to get your own page with links to favourite songs and more. You are just one click away...

Login with Facebook Login with Google