Log in

One click and you are in

Login with Facebook Login with Google

Why sign up and log in

Guitar Tabs Explorer
Mastodon bass tabs for Seabeast

Bass tabs

Mastodon - Seabeast


tuning (low to high) - D G C F
Riff 1A x1
|----------|----------|-----------|-----------|----------|----------|
|----------|----------|-----------|-----------|----------|----------|
|----------|----------|-----------|-----------|----------|----------|
|-7--------|-7--------|-10--------|-10--------|-7--------|-7--------|

|-------------|------13----|----------|----------|-----------|-----------|
|-------------|-0----------|----------|----------|-----------|-----------|
|-------12----|------------|----------|----------|-----------|-----------|
|-10----------|------------|-7--------|-7--------|-10--------|-10--------|

|----------|----------|-----------|-----------|----------|----------|
|----------|----------|-----------|-----------|----------|----------|
|----------|----------|-----------|-----------|----------|----------|
|-7--------|-7--------|-10--------|-10--------|-7--------|-7\\\\----|

|-----------|-----------|----------|----------|-----------|-----------|
|-----------|-----------|----------|----------|-----------|-----------|
|-----------|-----------|----------|----------|-----------|-----------|
|-10--------|-10\\\\----|-7--------|-7\\\\----|-10--------|-10\\\\----|


Riff 2 x4
|---------------------------------------------------------|
|---------------------------------------------------------|
|-----------------------------1-1-1-----------------------|
|-3h6-6-6-6-2h5-5-5-2h3-3-3-3-------0-3h6-0-2h5-0-3h6-0-1-|


Riff 1B x1
|----------|----------|-----------|-----------|----------|----------|
|----------|----------|-----------|-----------|----------|----------|
|----------|----------|-----------|-----------|----------|----------|
|-7--------|-7--------|-10--------|-10--------|-7--------|-7--------|

|-------------|------13----|----------|----------|-----------|-----------|
|-------------|-0----------|----------|----------|-----------|-----------|
|-------12----|------------|----------|----------|-----------|-----------|
|-10----------|------------|-7--------|-7\\\\----|-10--------|-10\\\\----|

|----------|----------|-----------|-----------|
|----------|----------|-----------|-----------|
|----------|----------|-----------|-----------|
|-7--------|-7\\\\----|-10--------|-10\\\\----|

Riff 2 x4


Riff 3 x4
|-----------------------|
|-----------------------|
|-----------------------|
|-0-3h6-0-2h5-0-3h6-0-1-|


Riff 4A x2
|---------------------------------------------|
|---------------------------------------------|
|-7---------7---------7h8-8-8-7p5-7h8-8-8-7p5-|
|------0---------0----------------------------|


Riff 4B x2
|-----------------------------------------------|
|-----------------------------------------------|
|-11---------11---------7h8-8-8-7p5-7h8-8-8-7p5-|
|-------0----------0----------------------------|


Riff 2 x4


Riff 4A x2


Riff 4B x2


Riff 4C x2
|---------------------------------------------|
|---------------------------------------------|
|---------------------7h8-8-8-7p5-7h8-8-8-7p5-|
|-7----0----7----0----------------------------|


Riff 5 x4
|----------------------------------------------------------------|
|-------------------------------------------------7-7-6----------|
|-8-7------------8---5---8-8-7------------8---5------------------|
|-----00000000-0---0---0-------00000000-0---0---0-------00000000-|

|----------------------------------------|
|------------------------79109109106767--|
|---8---5---8-87787810810--------------8-|
|-0---0---0------------------------------|

End With
|-----|
|-----|
|-8-7-|

Almost there ...

Sign in to get your own page with links to favourite songs and more. You are just one click away...

Login with Facebook Login with Google