Log in

One click and you are in

Login with Facebook Login with Google

Why sign up and log in

Guitar Tabs Explorer
Mastodon bass tabs for Naked burn

Bass tabs

Mastodon - Naked Burn


tuning (low to high) - D G C F

Rest for 9 seconds

Fill 1 x1
|------------------------------------------------------------|
|------------------------------------------------------------|
|------------------------------------------------------------|
|-2-2-----------2-2------------2-2------------2-2------------|
Riff 1 x2
|----------------------------------------------|
|----------------------------------------------|
|-2-3-2-0-2-3-2--2--2-2-2-2-2-2-2/5-5--5-5-5-0-|
|----------------------------------------------|

|----------------------------------------------|
|----------------------------------------------|
|-2-3-2-0-2-3-2--2--2-2-2-2-2-2-2-0-0--0-0-0-0-|
|----------------------------------------------|

Fill 2 x1
|-------------|
|-------------|
|-2-3-2-0-2-3-|
|-------------|


Riff 2 x2
|---------------------------------------------|
|---------------------------------------------|
|------9-----7--7-7---------------------------|
|-0--0---0-0--------0-0-6---6-6-X-8-8-8-6-6-8-|

|---------------------------------------------|
|---------------------------------------------|
|------9-----7--7-7---------------7-7-7-5-5-7-|
|-0--0---0-0--------0-0-6---6-6-X-------------|

Riff 3 x1
|------------------------------------------------------------------------4---4-6-|
|------------------------------------------------------------4-5-7-4-5-----0-----|
|-7--7-7---7--7-7---7--7-7---7--7-7---5--5-5---5--5-5----5-7-----------7---------|
|--------00-------00-------00-------00-------00-------00-------------------------|

|------------------------------------------------------------------------4---4---|
|------------------------------------------------------------4-5-7-4-5-----5---5-|
|-7--7-7---7--7-7---7--7-7---7--7-7---5--5-5---5--5-5----5-7-----------7---------|
|--------00-------00-------00-------00-------00-------00-------------------------|


Riff 4 x1
|---------------------------------------------------------------------|
|----9----10----12----9----10----12----9----10----12----9----10----12-|
|-10---10----10----10---10----10----10---10----10----10---10----10----|
|---------------------------------------------------------------------|

|-----------------------------------------------------------------|
|----7----8----10----7----8----10----7----8----10----7----8----10-|
|-----------------------------------------------------------------|
|-10---10---10----10---10---10----10---10---10----10---10---10----|

|-----------------------------------------------------------------------------|
|-----------------------------------------------------------------------------|
|---7---8---10---7---8---10---7---8---10---7---8---10---4---5---7---4---5---7-|
|-9---9---9----9---9---9----6---6---6----6---6---6----5---5---5---5---5---5---|


Riff 5 x1
|---------------------------------------------|
|---------------------------------------------|
|---------------------------------------------|
|-2-2-2-3--5-2-2-2-3--5-2-2-2-3--5-2-2-2-3--2-|

do everything over again

Fill 3 x1
|----------------------------------|
|----------------------------------|
|----------------------------------|
|-2-2-2-7--5-2-2-2-3--5-2-2-2-7--5-|


Riff 6 x3
|-----------------------------------------------------------------------|
|-----------------------------------------------------------------------|
|-5-3-2-0-2-0---2-0-----------------------------------------------------|
|-------------2-----3-2-0-2-2-2-3--5-2-2-2-7\5-5-2-2-2-3--5-2-2-2-7\5-5-|


Riff 7 x3
|-------------------------|
|-------------------------|
|-5-3-2-0-2-0---2-0-------|
|-------------2-----3-2-0-|

End with
|--------|
|--------|
|--------|

Almost there ...

Sign in to get your own page with links to favourite songs and more. You are just one click away...

Login with Facebook Login with Google