Log in

One click and you are in

Login with Facebook Login with Google

Why sign up and log in

Guitar Tabs Explorer
Mastodon bass tabs for Mother puncher

Bass tabs with lyrics

-------------------------------------------------------------------------------
			   Mother Puncher - Mastodon
-------------------------------------------------------------------------------

Tabbed By : GreenPhantom
e-mail: OddAidan@comcast.net
Tuning: A G C F

F|--------------------------------|-------------------|
C|--------------------------------|-------------------|
G|-----------{Guitar Intro)-------|-------------------|
A|--------------------------------|---6-3-3-3h4-1-1---|

	Now Troy plays this 2 different ways from what I have seen in live videos. In one he
close to the nut
and in the other he locks up with Bill and Brent. I'll transcribe them both but I'm not
sure about the close to nut one
F|----------------------------------------------------|
C|----------------------------------------------------|
G|---------------0-2-2-2-2---------------0-2-2-2-2----|X2
A|-----0-0-0-0-0------------0-0-0-0-0-----------------|
			OR
F|-----------------------------------------------------------|
C|-----------------------------------------------------------|
D|-------------12-14-14-14-14---------------12-14-14-14-14---|X2
A|15-0-0-0-0-0-----------------15-0-0-0-0-0------------------|

Another thing I've seen Troy do which will work fine here to is instead of
the 5 "0"s just let a single "0" ring.

Anyway, so the Intro is

F|----------------------------------------------------------------- |  \
C|-----------------------------------------------------------|  -- |
G|-------------12-14-14-14-14---------------12-14-14-14-14---|X2 -- |
A|15-0-0-0-0-0-----------------15-0-0-0-0-0------------------|  -- |
                                 |----x4
F|-------------------| |
C|-------------------| |
G|-------------------| |
A|---6-3-3-3h4-1-1----- |                      /

F|----------------|
C|----------------|
G|----------------|x2
A|---6-3-3-3h4-1--|

F|----------------------------------------------------------------- |  \
C|-----------------------------------------------------------|  -- |
G|-------------12-14-14-14-14---------------12-14-14-14-14---|X2 -- |
A|15-0-0-0-0-0-----------------15-0-0-0-0-0------------------|  -- |
                                 |----x4
F|-------------------| |
C|-------------------| |
G|-------------------| |
A|---6-3-3-3h4-1-1----- |                      /

F|-----------------|
C|-----------------|
G|-----------------|x2
A|---6-3-3-3h4-1-1-|

F|---------|----------------------------|
C|---------|----------------------------|
G|---------|-let guitars do their thing-|
A|-0-1-0---|----------------------------|

F|-------7-----7-----7-9---------|
C|---------9-9---9-9-----10------|
G|-------------------------------|
A|-0-3-0-------------------------|

F|------------------------------------|
C|---------------2-----6--------------|
G|-------5-3-5-3---5-3---5-2-3-0-0-2--|
A|-0-1-0------------------------------|

F|----------------------------------------|
C|----------7-----7------------------14-15|
G|------------9-9---9-9--6-7--10-12-------|
A|-0-3-0----------------------------------|


F|-------7-----7-----7-9---------|
C|---------9-9---9-9-----10------|
G|-------------------------------|
A|-0-3-0-------------------------|

F|------------------------------------|
C|---------------2-----6--------------|
G|-------5-3-5-3---5-3---5-2-3-0-0-2--|
A|-0-1-0------------------------------|

F|-----------------------------------|
C|----------7-----7------------------|
G|------------9-9---9-9--6-7--10-12--|
A|-0-3-0-----------------------------|

F|---------|-----------------------------------|
C|---------|-----------------------------------|
G|---------|-let guitars do their thing...again|
A|-0-1-0---|-----------------------------------|

F|-------7-----7-----7-9---------|
C|---------9-9---9-9-----10------|
G|-------------------------------|
A|-0-3-0-------------------------|

F|------------------------------------|
C|---------------2-----6--------------|
G|-------5-3-5-3---5-3---5-2-3-0-0-2--|
A|-0-1-0------------------------------|


F|----------------------------------------|
C|----------7-----7------------------14-15|
G|------------9-9---9-9--6-7--10-12-------|
A|-0-3-0----------------------------------|

F|--------------------------------------------------|
C|--------------------------------------------------|
G|-2-----1-----2-----1-----2-----1-----2-----1------|x3
A|---0-3---0-3---0-3---0-3---0-3---0-3---0-3---0-3--|


F|--------------------------------------------------|
C|--------------------------------------------------|
G|-2-----1-----2-----1-----2-----1-----2-----1------|
A|---0-3---0-3---0-3---0-3---0-3---0-3---0-3---0-3--|

F|-------------------------------|
C|-------------------------------|
G|-------------------------------|
A|--6-3-3-3h4-1-1--6-3-3-3h4-1-1-|

F|--------------------------------------------------|
C|--------------------------------------------------|
G|-2-----1-----2-----1-----2-----1-----2-----1------|
A|---0-3---0-3---0-3---0-3---0-3---0-3---0-3---0-3--|

F|--------------------------------|
C||-------------------------------|
G|--------------------------------|
A|---6-3-3-3h4-1-1--6-3-3-3h4-1-1-|

F|--------------------------------------------------|
C|--------------------------------------------------|
G|-2----7-8-7-2--------------5---5-----3-----2-3-2--| x9
A|---0-0----------0-0-0-0-0-0---0---0-0---0-0-------|

and there you have it. If somethings wrong...ah well. I couldnt find any bass tabs for
song anywhere else on the net
so if you want to add to this just let me know.


| / slide up
| \ slide down
| h hammer-on
| p pull-off
| ~ vibrato
| + harmonic
| x Mute note

Almost there ...

Sign in to get your own page with links to favourite songs and more. You are just one click away...

Login with Facebook Login with Google