Log in

One click and you are in

Login with Facebook Login with Google

Why sign up and log in

Guitar Tabs Explorer
Mastodon tabs for Megalodon

Guitar tabs

INTRO

D-------------------------------------------------------|
A-------------------------------------------------------|
F--------------0-----------------------0----------0-----|
C--------6--------6------------10---------10---------10-|
G-----3-----3--------3-----10------10---------10--------|
D--4--------------------8-------------------------------|

D--------------------------------------------------|
A--------------------------------------------------|
F----------------0---------------------0-----------|
C---------8---------8------------4--------4-----4--|
G-----10-----10--------10-----3-----3--------3-----|
D--9-----------------------5-----------------------|
Riff 1

D------------------------------------|
A----------------0---0---2--5/7--4/5-|
F----------0h3/4---4---4-------------|
C------0h4---------------------------|
G------------------------------------|
D--2---------------------------------|

D------------------------------------|
A----------------0---0---2--5/7--5\4-|
F----------0h3/4---4---4-------------|
C------0h4---------------------------|
G------------------------------------|
D--2---------------------------------|


Ending

D--------------------------------------------------------|
A--2-----------------------------------------------------|
F-----4-4-4vv---2--------------0---0---0---0---0---0---0-|
C------------------5-5-5vv---4---2-----------------------|
G------------------------------------3---2---------------|
D--------------------------------------------3---2---1---|

Verse Riff

D--------------------------------------------------|
A--------------------------------------------------|
F--------------------------------------------------|
C-----8---8-----8---8-----8-----8---8-----8-----8--|
G-----6---6-----6---6-----6-----6---6-----6-----6--|
D-0-0---0---0-0---0---0-0---0-0---0---0-0---0-0----|

Fill 1           Fill 2              Fill 3

D--------------  -------------------  ----------------|
A--------------  -------------------  ----------------|
F------0-----0-  ---------7---------  ----------------|
C--------0h6---  --7-9-10---10-9-10-  ----------------|
G--0h6---------  -------------------  --------4-------|
D--------------  -------------------  --4-5-7---7-5-7-|

Sorry Don't know the country lick


Riff after country lick

A chord diagramD MajorD
A chord diagramA augmentedA
A chord diagramFF
A chord diagramC majorC
A chord diagramG+G

Almost there ...

Sign in to get your own page with links to favourite songs and more. You are just one click away...

Login with Facebook Login with Google