Log in

One click and you are in

Login with Facebook Login with Google

Why sign up and log in

Guitar Tabs Explorer
Mastodon bass tabs for Island

Bass tabs

Mastodon - Island

tuing (low to high) - D G C F

Rest for 5 seconds
Riff 1 x3
|--------------------------------------------------------|
|--------------------------------------------------------|
|--------------------------------------------------------|
|-0-0000-0-0000-1-1111-4-4444-3-3333-3-3333-6-6666-8-8-8-|


Riff 2 x4
|----------------------------------------------------------------|
|----------------------------------------------------------------|
|----------------------7p6---4h6----------------------11p10---10-|
|-0-00004p3-0-1-0-0000-----0-----0-00004p3-0-1-0-0000-------0----|


Riff 3 x4
|-------------------------------------------|
|-------------------------------------------|
|-11p10-5h7-11p10-7h8-11p10-8h10-11p10-8h10-|
|------0---------0---------0----------0-----|


Riff 2 x2


Riff 3 x4


Riff 1 x4


Riff 2 x2


Riff 3 x4


Riff 5 x2
|-----------------------------------------------------------------------|
|-----------------------------------------------------------------------|
|-10---------------10---------------13----------------13----------------|
|----0--9--12-12\-----0--9--12-12\-----0--12--15-15\-----0--12--15-15\--|

|---------------------------------------------------------|
|---------------------------------------------------------|
|-4-------------4-------------7-------------7-------------|
|---0--3--6-6\----0--3--6-6\----0--6--9-9\----0--6--9-9\--|


Riff 6 x4
|-----------------------------------------------------------------------|
|-----------------------------------------------------------------------|
|-----4-----------------4-----------------4-----------------4-------5---|
|-0h3---4-0h3333333-0h3---4-0h3333333-0h3---4-0h3333333-0h3---4-0h3---5-|


Riff 5 x1

End With
|---------------|
|---------------|
|-----4---------|

Almost there ...

Sign in to get your own page with links to favourite songs and more. You are just one click away...

Login with Facebook Login with Google